Killswitch Engage - Rose Of Sharyn Chords & Tabs

 

Rose Of Sharyn Chords & Tabs

Killswitch Engage Chords & Tabs

Version: 4 Type: Tab 0 ratings
1 star 2 stars 3 stars 4 stars 5 stars
comments

Rose Of Sharyn Tab

   
#----------------------------------PLEASE NOTE---------------------------------#
#This file is the author's own work and represents their interpretation of the #
#song. You may only use this file for private study, scholarship, or research. #
#------------------------------------------------------------------------------#
================================================================================
         Title : Rose Of Sharyn
        Artist : Killswitch Engage
         Album : The End of Heartache
   Record Label: Road Runner Records
        Version: 1.0
           Date: 7/16/2004
Transcribed by : sumpm1 
        Tuning : C G C F A D (Drop C)

  Release Notes:Some of these riffs will really give your hand a stretch.
		Every Riff here has been named(Riff1, Riff2 etc....) and
		the song structure is at the bottom of the page. 
		If you find a Riff that doesn't seem to have a name, 
		it is because the Riff simply ran over to the next line
		and it belongs to the last name seen before it.
		Almost every Riff has 2 guitars at the same time. If you
		see 2 staffs connected, or 3 staffs connected, that means
		there is 3 guitars for that part. The top staff is Gtr 1,
		next down is Gtr 2 etc.....Now go tear it up.
================================================================================
.  - palm mute           /  - slide up to
\  - slide down to       ~  - vibrato
h  - hammer on           b  - Bend
p  - pull off            Suffixes for bend
t  - tap                 f  - full bend    h - half bend
ph - pinched harmonic    q  - quarter bend t - tap bend
*  - see comment         ^  - Hold bend    r release bend
x  - Stuccatto           ~  - vibrato bend
,  - slight palm mute    () - ghost note, sustained note
"  - tremolo note        <> - Trill
================================================================================


Riff 1
|------------------------------------------------------------------|
|------------------------------------------------------------------|
|------------------------------------------------------------------|
|--------------8-7---------------------------8-7h8p7---------------|
|-0------------6-5-----------1-0-----------0---------7h8p7---------|
|-0-0-0-0-0-0------0-0-0-0-0-1-0-0-0-0-0-0-0---------------7h10----|
|
|------------------------------------------------------------------|
|------------------------------------------------------------------|
|--------------------------------------------8-7h8p7---------------|
|----------------------------------------------------7h8p7---------|
|-0-----------10-8-----------6-5-----------0---------------5h=8----|
|-0-0-0-0-0-0------0-0-0-0-0-----0-0-0-0-0-0-----------------------|

Riff 2
|----------------------------------------------------|
|----------------------------------------------------|
|----------------------------------------------------|
|----------------------------------------------------|
|---5---7---8---5---7---8---5---7---8---5---7---8----|
|-0---0---0---0---0---0---8---8---8---5---5---5------|
|
|----------------------------------------------------|
|----------------------------------------------------|
|----------------------------------------------------|
|-------5---7-------5---7-------5---7-------5---7----|
|---8-----------8-----------8-----------8------------|
|-0---0---0---0---0---0---8---8---8---5---5---5------|


|------------------------------------------------------|
|------------------------------------------------------|
|------------------------------------------------------|
|-----------------------------------------10-----10----|
|---5---7---8---5---7---8---5---7---8-7-8----7-8-------|
|-0---0---0---0---0---0---8---8---8--------------------|
|
|------------------------------------------------------|
|------------------------------------------------------|
|------------------------------------------9------9----|
|-------5---7-------5---7-------5---7-5-7----5-7-------|
|---8-----------8-----------8--------------------------|
|-0---0---0---0---0---0---8---8---8--------------------|
[ Tab from: http://www.guitartabs.cc/tabs/k/killswitch_engage/rose_of_sharyn_tab_ver_4.html ]
Riff 3
|----------------------------------------------------------------------|
|----------------------------------------------------------------------|
|----------------------------------------------------------------------|
|----------------------------------------------------------------------|
|-1---------------3---------------5---------------8-------8-8-8-3-3-3--|
|-1-1-1-1-1-1-1-1-3-3-3-3-3-3-3-3-5-5-5-5-5-5-5-5-8-8-8-8-8-8-8-3-3-3--|
|
|----------------------------------------------------------------------|
|----------------------------------------------------------------------|
|-2---2-2-2-3-3-3-----2-2-2-3-3-3-----2-2-2-3-3-3----------------------|
|-3---3-3-3-5-5-5-----3-3-3-5-5-5-----3-3-3-5-5-5----------------------|
|-------------------------------------------------8-------8-8-8-3-3-3--|
|-------------------------------------------------8-8-8-8-8-8-8-3-3-3--|

Riff 4    (requires hand to stretch very far)
|------------------------------------------------------------|
|------------------------------------------------------------|
|-----3---2-----------------------5---3----------------------|
|-------------5---3---5---3h5-------------7---3---5---3h5----|
|-1---------------------------3------------------------------|
|-1-1---1---1---1---1---1-----3-3---3---3---3---3---3--------|
|
|------------------------------------------------------------|
|------------------------------------------------------------|
|------------------------------------------------------------|
|-----5---3---1-------1-----------7---5---3------------------|
|-1---------------5-------5h6-3---------------5---6---5h6----|
|-1-1---1---1---1---1---1-----3-3---3---3---3---3---3--------|
|
|------------------------------------------------------------|
|------------------------------------------------------------|
|------------------------------------------------------------|
|------------------------------------------------------------|
|-1-----------------------3h5-3-----------------------5h7----|
|-1-----------------------3h5-3-----------------------5h7----|


|--------------------------------------------------|
|--------------------------------------------------|
|--------------------------------------------------|
|-------8-----------8-----------8------------------|
|-5-5-8---8-5-5-5-8---8-5-8-5-8---8-5-8----3-------|
|-5-----------5-----------8-----------8--3-3--1----|
|
|--------------------------------------------------|
|--------------------------------------------------|
|--------------------------------------------------|
|--------------------------------------------------|
|-5-----------------------8-----------8----3-------|
|-5-----------------------8---------8-8--3-3--1----|

Riff 5
Electric
|-------------------------------------------------------------------------|
|-------------------------------------------------------------------------|
|-------------------------------------------------------------------------|
|-------------------------------------------------------------------------|
|--1-----------------3-----------------5-----------------8----------------|
|--1-----------------3-----------------5-----------------8----------------|
|Clean
|-10--8----10--8----10--8----10--8----10--8----10--8----10--8----10-10----|
|-11-10-11-11-10-11-11-10-11-11-10-11-11-10-11-11-10-11-11-10-11-11-11----|
|-------10-------10-------10-------10-------10-------10-------10----------|
|-------------------------------------------------------------------------|
|-------------------------------------------------------------------------|
|-------------------------------------------------------------------------|
|Clean
|-------------------------------------------------------------------------|
|--------4-----------------6-----------------6-----------6--4--3----------|
|-----3-----------------5-----------------7-------------------------------|
|--1-----------------3-----------------5----------------------------------|
|-------------------------------------------------------------------------|
|-------------------------------------------------------------------------|

Riff 6 (outro)
|-------------------------------|
|-------------------------------|
|-3-2----3-2----3-2----3-2------|
|-----3------3------3------3----|
|-------------------------------|
|-------------------------------|




Song Structure:

2X Riff 1 Gtr1  only
2X Riff 1
2X Riff 2 Gtr 1 only
2X Riff 3
2X Riff 1 Gtr 1 only
2X Riff 1
2X Riff 2
2X Riff 3
2X Riff 4
2X Riff 5
2X Riff 4 
2X Riff 4 + Riff 6 on top till fade out
Comments