Killswitch Engage - Rise Inside Chords & Tabs

 

Rise Inside Chords & Tabs

Killswitch Engage Chords & Tabs

Version: 1 Type: Bass Tab 0 ratings
1 star 2 stars 3 stars 4 stars 5 stars
comments

Rise Inside Bass Tab

   
Killswitch Engage - Rise Inside

Alive Or Just Breathing?



Low to high (F,C,G,C)

C|--------------------------------------||
G|--------------------------------------||
C|--------------------------------------||
F|---1-0-0-0-0-0-0-3-3-0-0-8-8-3-3-0----||


C|------------------------------------------------------------------------------||
G|------------------------------------------------------------------------------||
C|------------------------------------------------------------------------------||
F|-------1-0-0-0-0-0-0-3-3-0-0-8-8-3-3-0-1-0-0-0-0-0-0-3-3-0-0-0-2-3-2-3--------||

(Gradually speeding up)
C|--------------------------------------------------------------------------------
G|--------------------------------------------------------------------------------
C|--------------------------------------------------------------------------------
F|-1-0-0-0-0-0-0-3-3-3-3-3-3-3-3-8-8-8-7-7-7-7-7-7-7-7-7-0-2-3-2-3-1-0-0-0-0-0-0--

(Gradually speeding up)
----------------------------------------------------------------------------------
----------------------------------------------------------------------------------
----------------------------------------------------------------------------------
-3-3-3-3-3-3-3-3-8-8-8-1-1-1-1-1-1-1-1-1-0-2-3-2-3-1-0-0-0-0-0-0-3-3-3-3-3-3-3-3--

(Gradually speeding up)
----------------------------------------------------------------------------------
----------------------------------------------------------------------------------
----------------------------------------------------------------------------------
-8-8-8-7-7-7-7-7-7-7-7-7-0-2-3-2-3-1-0-0-0-0-0-0-3-3-3-3-3-3-3-3-8-8-8-1-1-1-1-1--

(Gradually speeding up)
---------------------|-------------------|
---------------------|-------------------|
---------------------|-------------------|
--1-1-1-1-1-1-1-1-1--|------8---\-5------|


C|----------------------------------------------------------||
G|----------------------------------------------------------||
C|----------------------------------------------------------||
F|---------0-0-5-0-0-0-5-0-0-0-5-0-0-0-5-0-8---\-5----------||

(10th fret, not open/1st fret)
C|------------------------------------------------------------------------------||
G|------------------------------------------------------------------------------||
C|------------------------------------------------------------------------------||
F|-----700000070000007000000700000070000700007777101010108888-8--8h10p8-\-7-----||

(10th fret, not open/1st fret)
C|--------------------------------------------------------------------------------
G|--------------------------------------------------------------------------------
C|--------------------------------------------------------------------------------
F|-5-0-0-5-0-0-5-0-0-5-0-0-5-0-5-0-7-7-7-10-10-10-8-8-8-8--8h10p8-\-7-5-0-0-5-0-0-

(10th fret, not open/1st fret)
-----------------------------------------|
-----------------------------------------|
-----------------------------------------|
--5-0-0-5-0-0-5-0-5-0-7---10---8----000--|

(Gradually speeding up)
C|--------------------------------------------------------------------------------
G|--------------------------------------------------------------------------------
C|--------------------------------------------------------------------------------
F|-1-0-0-0-0-0-0-3-3-3-3-3-3-3-3-8-8-8-7-7-7-7-7-7-7-7-7-0-2-3-2-3-1-0-0-0-0-0-0--
[ Tab from: http://www.guitartabs.cc/tabs/k/killswitch_engage/rise_inside_btab.html ]
(Gradually speeding up)
----------------------------------------------------------------------------------
----------------------------------------------------------------------------------
----------------------------------------------------------------------------------
-3-3-3-3-3-3-3-3-8-8-8-1-1-1-1-1-1-1-1-1-0-2-3-2-3-1-0-0-0-0-0-0-3-3-3-3-3-3-3-3--

(Gradually speeding up)
----------------------------------------------------------------------------------
----------------------------------------------------------------------------------
----------------------------------------------------------------------------------
-8-8-8-7-7-7-7-7-7-7-7-7-0-2-3-2-3-1-0-0-0-0-0-0-3-3-3-3-3-3-3-3-8-8-8-1-1-1-1-1--

(Gradually speeding up)
---------------------|-------------------|
---------------------|-------------------|
---------------------|-------------------|
--1-1-1-1-1-1-1-1-1--|------8---\-5------|


C|----------------------------------------------------------||
G|----------------------------------------------------------||
C|----------------------------------------------------------||
F|---------0-0-5-0-0-0-5-0-0-0-5-0-0-0-5-0-8---\-5----------||

(10th fret, not open/1st fret)
C|------------------------------------------------------------------------------||
G|------------------------------------------------------------------------------||
C|------------------------------------------------------------------------------||
F|-----700000070000007000000700000070000700007777101010108888-8--8h10p8-\-7-----||

(10th fret, not open/1st fret)
C|--------------------------------------------------------------------------------
G|--------------------------------------------------------------------------------
C|--------------------------------------------------------------------------------
F|-5-0-0-5-0-0-5-0-0-5-0-0-5-0-5-0-7-7-7-10-10-10-8-8-8-8--8h10p8-\-7-5-0-0-5-0-0-

(10th fret, not open/1st fret)
-----------------------------------------|
-----------------------------------------|
-----------------------------------------|
--5-0-0-5-0-0-5-0-5-0-7---10---8----000--|

(10th fret, not open/1st fret)
C|------------------------------------------------------------------------------||
G|------------------------------------------------------------------------------||
C|------------------------------------------------------------------------------||
F|---7/80000007/80000007/80000007/8-7-10-8-7/80000007/8000000-0-0-5-0-4-0-3-0---||


C|-------------------|
G|-------------------|
C|-------------------|
F|----7---10---8-----|

(10th fret, not open/1st fret)
C|------------------------------------------------------------------------------||
G|------------------------------------------------------------------------------||
C|------------------------------------------------------------------------------||
F|------7-0-0-7-0-0-7-0-0-7-0-0-7-0-7-0-7-7-7-10-10-10-8-8-8-8--8h10p8-\-7------||

(10th fret, not open/1st fret)
C|--------------------------------------------------------------------------------
G|--------------------------------------------------------------------------------
C|--------------------------------------------------------------------------------
F|-5-0-0-5-0-0-5-0-0-5-0-0-5-0-5-0-7-7-7-10-10-10-8-8-8-8--8h10p8-\-7-5-0-0-5-0-0-

(10th fret, not open/1st fret)
-----------------------------------------|
-----------------------------------------|
-----------------------------------------|
--5-0-0-5-0-0-5-0-5-0-7---10---8----000--|

(10th fret, not open/1st fret)
C|-----------------------------------------------------------|
G|-----------------------------------------------------------|
C|-----------------------------------------------------------|
F|-----5-0-0-5-0-0-5-0-0-5-0-0-5-0-5-0-7---10---8----000-----|


C|--------------------------------------||
G|--------------------------------------||
C|--------------------------------------||
F|---1-0-0-0-0-0-0-3-3-0-0-8-8-3-3-0----||


C|--------------------------------------||
G|--------------------------------------||
C|--------------------------------------||
F|---1-0-0-0-0-0-0-3-3-0-0-3-3-2-2-0----||



weenoid@hotmail.com
Comments