Killswitch Engage - Numbered Days Chords & Tabs

 

Numbered Days Chords & Tabs

Killswitch Engage Chords & Tabs

Version: 1 Type: Bass Tab 0 ratings
1 star 2 stars 3 stars 4 stars 5 stars
comments

Numbered Days Bass Tab

   
Band- Killswitch Engage
Song- Numbered Days

Tuning: C G C F 

Intro
|--------------------------|
|--------------------------|
|--------------------------| x1
|-0-0--1p0-3p0-4p0-3p0-1p0-|

|---------------------------------------------------|
|---------------------------------------------------|
|---------------------------------------------------| x1 with guitar
|-0-0--1p0-3p0-4p0-3p0-1p0---0-0-1-0---0-0-1-0------|

|---------------------------------------------------|
|---------------------------------------------------|
|---------------------------------------------------| x4 Alone
|-0-0--1p0-3p0-4p0-3p0-1p0---0-0-1-0---0-0-1-0------|

Verse
|---------------------------------------------------------------------------|     
|---------------------------------------------------------------------------|    
|---------------------------------------------------------------------------|x4      
|-0-0--1p0-3p0-4p0-3p0-1p0--0-0-0-0-0-0--1p0--0-0-0-0-0-0--1p0--0-0-0-0-0-0-|   

First Chorus
|-----------------------------------------------------------| 
|--------------------------------------------------2h1p2----|
|-----5-----5-----1-----1-----------1-----3-----5-----------| x 4
|-0-0---0-0---0-0---0-0---0-0-3-0-0---0-0---0-0-------------|

Verse
|----------------------------------------------|     
|----------------------------------------------|     
|----------------------------------------------| x4       
|-0-0--1p0-3p0-4p0-3p0-1p0---0-0-1-0---0-0-1-0-|     
[ Tab from: http://www.guitartabs.cc/tabs/k/killswitch_engage/numbered_days_btab.html ]
First Chorus
|-----------------------------------------------------------| 
|--------------------------------------------------2h1p2----|
|-----5-----5-----1-----1-----------1-----3-----5-----------| x 4
|-0-0---0-0---0-0---0-0---0-0-3-0-0---0-0---0-0-------------|

Second Chorus (Build Up)
|------------------------------|     
|------------------------------|     
|------------------------------| x2  
|-(0~)----(3~)----(5~)----(8~)-|    (0~) means hold the note

Fill
|----------------|
|----------------|
|----------------| x1
|-0-5-0-3-3--3-0-|

Second Chorus
|----------------------------|
|----------------------------|
|----------------------------| x2  
|-00000--33333--55555--88888-|    listen to song for specific strumming pattern

Bridge 
|--------------------------|
|--------------------------|
|--------------------------| x1
|-0---0-0---0---0-0---3--1-|

|------------------------------------------|
|------------------------------------------|
|------------------------------------------| x1
|-0---0-0---0---0-0---3---3-3---3--0-0-0-1-|

|------------------------------------------------|
|------------------------------------------------|
|------------------------------------------------| x1
|-0---0-0---0---0-0---0-0-0-3---3-3---3--0-0-0-1-|

Second Chorus
|----------------------------|
|----------------------------|
|----------------------------| x2  
|-00000--33333--55555--88888-|    listen to song for specific strumming pattern

Outro (Verse)
|---------------------------------------------------------------------------|     
|---------------------------------------------------------------------------|     
|---------------------------------------------------------------------------| x4  
|-0-0--1p0-3p0-4p0-3p0-1p0--0-0-0-0-0-0--1p0--0-0-0-0-0-0--1p0--0-0-0-0-0-0-|
Comments