Killswitch Engage - Life To Lifeless Chords & Tabs

 

Life To Lifeless Chords & Tabs

Killswitch Engage Chords & Tabs

Version: 3 Type: Tab 0 ratings
1 star 2 stars 3 stars 4 stars 5 stars
comments

Life To Lifeless Tab

   
-------------------------------------------------------------------------------
			     Life To LifeLess – Killswitch Engage
-------------------------------------------------------------------------------

Tabbed by: Tropical
Email:Tropical6969@hotmail.com

Tuning:CGCFAD
Intro
Gtr 1 (play with drums)
e|---------------------------------------------------------------------------|
B|---------------------------------------------------------------------------|
G|---------------------------------------------------------------------------|
D|---------------------------------------------------------------------------|
A|0-0--0-0----0-0-0-0-0-0-0-0------------------------------------------------|
E|0-0--0-0----0-0-0-0-0-0-0-0------------------------------------------------|
Gtr 2
e|---------------------------------------------------------------------------|
B|---------------------------------------------------------------------------|
G|---------------------------------------------------------------------------|
D|---------------------------------------------------------------------------|
A|\\\\5------6-----------0---------------------------------------------------|
E|\\\\5------6-----------0---------------------------------------------------|
Verse (both guitars)
e|---------------------------------------------------------------------------|
B|---------------------------------------------------------------------------|
G|---------------------------------------------------------------------------|
D|-----------------------------7---------------------------------------------|
A|\\\5---0-0----0-6---0-0----0—5------0-0-0--000--0-0------------------------|
E|\\\5---0-0----0-6---0-0----0--------0-0-0--000--0-0------------------------|
Gtr 1 plays intro
Gtr 2 plays this when vocals begin
e|---------------------------------------------------------------------------|
B|---------------------------------------------------------------------------|
G|---------------------------------------------------------------------------|
D|---------------------------------------------------------------------------|
A|\\\0-0-0-0-0-0-0-0-0-0-0-0-0-0-0-0-----------------------------------------|
E|\\\0-0-0-0-0-0-0-0-0-0-0-0-0-0-0-0-----------------------------------------|
Chorus                                                              
e|---------------------------------------------------------------------------|
B|------------------------------------------------------------------+-+-+----|
G|------------------------------------------------------------------9-9-9----|
D|5/7--5---------------------------5/7--5------------------------------------|
A|3/5--3---3-0-3---3-3-0-3--00-----3/5--3---3-0-0---0-0-0--------------------|
E|---------3-0-3---3-3-0-3--00--------------3-0-0---0-0-0--------------------|
[ Tab from: http://www.guitartabs.cc/tabs/k/killswitch_engage/life_to_lifeless_tab_ver_3.html ]
e|---------------------------------------------------------------------------|
B|---------------------------------------------------------------------------|
G|---------------------------------------------------------------------------|
D|5/7--5---------------------------5/7--5------------------------------------|
A|3/5--3---3-0-3---3-3-0-3--00-----3/5--3---3-0-0---0-0-0---0-0-0-0----------|
E|---------3-0-3---3-3-0-3--00--------------3-0-0---0-0-0---0-0-0-0----------|
After chorus bit
e|---------------------------------------------------------------------------|
B|---------------------------------------------------------------------------|
G|---------------------------------------------------------------------------|
D|---------------------------------------------------------------------------|
A|5h7--------------------------5h7-----------3--6----------------------------|
E|-----5h7—3h5—1h3-00000000---------5h7—3h5--3--6----------------------------|

e|---------------------------------------------------------------------------|
B|---------------------------------------------------------------------------|
G|---------------------------------------------------------------------------|
D|---------------------------------------------------------------------------|
A|-5h7--------------------------5h7----------3--8----------------------------|
E|-----5h7—3h5—1h3-00000000---------5h7—3h5--3--8----------------------------|
Next after bit
e|---------------------------------------------------------------------------|
B|---------------------------------------------------------------------------|
G|---------------------------------------------------------------------------|
D|---------------------------------------------------------------------------|
A|5h7--------------------------5h7-----------3--6----------------------------|
E|-----5h7—3h5—1h3--0---------------5h7—3h5--3--6----------------------------

e|---------------------------------------------------------------------------|
B|---------------------------------------------------------------------------|
G|---------------------------------------------------------------------------|
D|---------------------------------------------------------------------------|
A|-5h7--------------------------5h7-----------3--8---------------------------|
E|-----5h7—3h5—1h3--0----------------5h7—3h5--3--8---------------------------|

Gtr 2 plays intro
Gtr 1 plays this
e|---------------------------------------------------------------------------|
B|---------------------------------------------------------------------------|
G|---------------------------------------------------------------------------|
D|---------------------------------------------------------------------------|
A|0-0-0-0-0-0-0-0-0-0-0-0-0--------------------------------------------------|
E|0-0-0-0-0-0-0-0-0-0-0-0-0--------------------------------------------------|
Gtr 1 plays after chorus bit
Gtr 2 plays this (please note twelves, tens &fourteens)
e|---------------------------------------------------------------------------|
B|---------------------------------------------------------------------------|
G|7777777777777771010101010101010101414141414141414141414141414--------------|
D|---------------------------------------------------------------------------|
A|5555555555555558888888888888888881212121212121212121212121212--------------|
E|---------------------------------------------------------------------------|

That’s about it I think there’s a second guitar in the chorus but I cant figure it out
| /  slide up
| \  slide down
| h  hammer-on
| p  pull-off
| ~  vibrato
| +  harmonic
| x  Mute note

===============================================================================
Comments