Killswitch Engage - Life To Lifeless Chords & Tabs

 

Life To Lifeless Chords & Tabs

Killswitch Engage Chords & Tabs

Version: 2 Type: Tab 0 ratings
1 star 2 stars 3 stars 4 stars 5 stars
comments

Life To Lifeless Tab

   
Song: Life to Lifeless
Artist: Killswitch Engage
Album: Alive or Just Breathing
Tabbed by: Christian / silent_warrior_@hotmail.com

I was looking for KSE tabs but I couldn't find any..so I made this one..and I am currently
working on other ones. I tried my best. Comments welcome.

Tuning: C G C F A D

///X - Scratch string with pick
PM - Palm mute
* - Harmonic
\ - Slide down
/ - Slide up

Intro - Heavy palm mute - Guitar 1
|-----------------------------------------------|
|-----------------------------------------------|
|-----------------------------------------------| x6
|-0-0---0-0---0-0-0-0-0---0-0---0-0---0-0-0-0-0-|
|-0-0---0-0---0-0-0-0-0---0-0---0-0---0-0-0-0-0-|
|-0-0---0-0---0-0-0-0-0---0-0---0-0---0-0-0-0-0-|
PM- -   - -   - - - - -   - -   - -   - - - - - 

Guitar 2
|-----------------|
|-----------------|
|-----------------| x4
|-------3---6---0-|
|-------3---6---0-|
|-///X--3---6---0-|

Verse
|-------------------------------------------------|
|-------------------------------------------------|
|-------------------------------------------------| x4
|-------3-0-0-0-6-0-0-10-12--0--0--0--0-0-0--0--0-|
|-10\3--3-0-0-0-6-0-0-10-12--0--0--0--0-0-0--0--0-|
|-10\3--3-0-0-0-6-0-0-10-12--0--0--0--0-0-0--0--0-|
PM        - - -   - -        -  -  -  - - -  -  -

Fill - Heavy palm mute
|---------------------------------------------------|
|---------------------------------------------------|
|---------------------------------------------------|x2
|-0-0---0-0---0-0-0-0-0-0---0-0---0-0---0-0-0-0-0-0-|
|-0-0---0-0---0-0-0-0-0-0---0-0---0-0---0-0-0-0-0-0-|
|-0-0---0-0---0-0-0-0-0-0---0-0---0-0---0-0-0-0-0-0-|
PM- -   - -   - - - - - -   - -   - -   - - - - - -

Verse
|--------------------------------------------------------|
|--------------------------------------------------------|
|--------------------------------------------------------| x2
|------0-0---0-0---0-0-0-0-0-0---0-0---0-0---0-0-0-0-0-0-|
|-/10--0-0---0-0---0-0-0-0-0-0---0-0---0-0---0-0-0-0-0-0-|
|-/10--0-0---0-0---0-0-0-0-0-0---0-0---0-0---0-0-0-0-0-0-|
PM     - -   - -   - - - - - -   - -   - -   - - - - - -

Verse
|-------------------------------------------------|
|-------------------------------------------------|
|-------------------------------------------------| x4
|-------3-0-0-0-6-0-0-10-12--0--0--0--0-0-0--0--0-|
|-10/3--3-0-0-0-6-0-0-10-12--0--0--0--0-0-0--0--0-|
|-10/3--3-0-0-0-6-0-0-10-12--0--0--0--0-0-0--0--0-|
PM        - - -   - -        -  -  -  - - -  -  -

Chorus
|--------------------------------------------------------------|
|-----------------------------------------------------*9*9*9*9-|
|--------------------------------------------------------------| x1
|-10/12-10-0-0-3---3-0-0-3-3---10/12-10-0-0-0---0--0-----------|
|-10/12-10-0-0-3---3-0-0-3-3---10/12-10-0-0-0---0--0-----------|
|-10/12-10-0-0-3---3-0-0-3-3---10/12-10-0-0-0---0--0-----------|
PM         - -       - -                - -        -

Chorus
|--------------------------------------------------------|
|--------------------------------------------------------|
|--------------------------------------------------------| x1
|-10/12-10-0-0-3---3-0-0-3-3---10/12-10-0-0-0---0--0-0-0-|
|-10/12-10-0-0-3---3-0-0-3-3---10/12-10-0-0-0---0--0-0-0-|
|-10/12-10-0-0-3---3-0-0-3-3---10/12-10-0-0-0---0--0-0-0-|
PM         - -       - -                - -        - -
[ Tab from: http://www.guitartabs.cc/tabs/k/killswitch_engage/life_to_lifeless_tab_ver_2.html ]
Bridge
|----------------------------------------------------------|
|----------------------------------------------------------|
|----------------------------------------------------------|
|----------------------------------------------------------| x4
|--------------------0-0-0-0-0-0-0-0------------------3--6-|
|-5h7----------------0-0-0-0-0-0-0-0--5h7-------------3--6-|
|-----5h7-3h5-1h3-0--0-0-0-0-0-0-0-0------5h7-3h5-1h3-3--6-|
PM                   - - - - - - - -

|----------------------------------------------|       |------|
|----------------------------------------------|       |------|
|----------------------------------------------|       |------|
|----------------------------------------------| x4    |------| x1
|-----------------------------------------3--6-|       |--\8--|
|-5h7---------------------5h7-------------3--6-|       |--\8--|
|-----5h7-3h5-1h3-0-----------5h7-3h5-1h3-3--6-|       |--\8--|

Guitar 1                      Guitar 2
|-------------------------|   |-----------|               |-------------------|
|-------------------------|   |-----------|               |-------------------|
|-------------------------|   |-----------| x4  Then this |-------------------| x1
|-0-0-0-0-0-0-0-0-0-0-0-0-|   |-3---6---0-|               |-0-0--0-0--0-0-0-0-|
|-0-0-0-0-0-0-0-0-0-0-0-0-|   |-3---6---0-|               |-0-0--0-0--0-0-0-0-|
|-0-0-0-0-0-0-0-0-0-0-0-0-|   |-3---6---0-|               |-0-0--0-0--0-0-0-0-|    
PM- - - - - - - - - - - -                                   - -  - -  - - - -    

Verse
|-------------------------------------------------|
|-------------------------------------------------|
|-------------------------------------------------| x4
|-------3-0-0-0-6-0-0-10-12--0--0--0--0-0-0--0--0-|
|-10/3--3-0-0-0-6-0-0-10-12--0--0--0--0-0-0--0--0-|
|-10/3--3-0-0-0-6-0-0-10-12--0--0--0--0-0-0--0--0-|
PM        - - -   - -        -  -  -  - - -  -  -      

Chorus
|--------------------------------------------------------------|
|-----------------------------------------------------*9*9*9*9-|
|--------------------------------------------------------------| x1
|-10/12-10-0-0-3---3-0-0-3-3---10/12-10-0-0-0---0--0-----------|
|-10/12-10-0-0-3---3-0-0-3-3---10/12-10-0-0-0---0--0-----------|
|-10/12-10-0-0-3---3-0-0-3-3---10/12-10-0-0-0---0--0-----------|
PM         - -       - -                - -        -

|--------------------------------------------------------|
|--------------------------------------------------------|
|--------------------------------------------------------| x1
|-10/12-10-0-0-3---3-0-0-3-3---10/12-10-0-0-0---0--0-0-0-|
|-10/12-10-0-0-3---3-0-0-3-3---10/12-10-0-0-0---0--0-0-0-|
|-10/12-10-0-0-3---3-0-0-3-3---10/12-10-0-0-0---0--0-0-0-|
PM         - -       - -                - -        - -    

|--------------------------------------------------------------|
|-----------------------------------------------------*9*9*9*9-|
|--------------------------------------------------------------| x1
|-10/12-10-0-0-3---3-0-0-3-3---10/12-10-0-0-0---0--0-----------|
|-10/12-10-0-0-3---3-0-0-3-3---10/12-10-0-0-0---0--0-----------|
|-10/12-10-0-0-3---3-0-0-3-3---10/12-10-0-0-0---0--0-----------|
PM         - -       - -                - -        - 

|--------------------------------------------------------|
|--------------------------------------------------------|
|--------------------------------------------------------| x1
|-10/12-10-0-0-3---3-0-0-3-3---10/12-10-0-0-0---0--0-0-0-|
|-10/12-10-0-0-3---3-0-0-3-3---10/12-10-0-0-0---0--0-0-0-|
|-10/12-10-0-0-3---3-0-0-3-3---10/12-10-0-0-0---0--0-0-0-|
PM         - -       - -                - -        - -    

Outro
|----------------------------------------------------------|      |------|
|----------------------------------------------------------|      |------|
|----------------------------------------------------------| x4   |------| x1
|----------------------------------------------------------|      |------|
|--------------------0-0-0-0-0-0-0-0------------------3--6-|      |--\8--|
|-5h7----------------0-0-0-0-0-0-0-0--5h7-------------3--6-|      |--\8--|
|-----5h7-3h5-1h3-0--0-0-0-0-0-0-0-0------5h7-3h5-1h3-3--6-|      |--\8--|
PM                   - - - - - - - - 
Comments