Killswitch Engage - Life To Lifeless Chords & Tabs

 

Life To Lifeless Chords & Tabs

Killswitch Engage Chords & Tabs

Version: 1 Type: Bass Tab 0 ratings
1 star 2 stars 3 stars 4 stars 5 stars
comments

Life To Lifeless Bass Tab

   
Band- Killswitch Engage
Song- Life To Lifeless

Tuning:
F
C
G
C

Riff 1
[-----------------------------]
[-----------------------------]
[-----------------------------]
[--0-0--0-0--0-0-0-0-0-0--0-0-]

Riff 2
[---------------------------]
[---------------------------]
[-------------------------5-]
[--5--0--0--0--6--0--0--0---]

Riff 3
[ Tab from: http://www.guitartabs.cc/tabs/k/killswitch_engage/life_to_lifeless_btab.html ]
[----------------------------------------------]
[----------------------------------------------]
[-3/5--3----------------------3/5--3-----------]
[--------5--3---3-3-0-0-3-3-3---------5--3--0--]

Riff 4
[----------------------------------------]
[----------------------------------------]
[----------------------------------------]
[-0-0-0-0-0-0-0-0-0-0-0-0-0-0-0-0-0-0-0--]

Riff 5
[-------------------------------------------]
[-------------------------------------------]
[-------------------------------------------]
[-0-0-0-0-0-0-0-0-0-0-0-0-0-0-0-0-0-0-0-3-6-]
Comments