Killswitch Engage - Just Barely Breathing Chords & Tabs

 

Just Barely Breathing Chords & Tabs

Killswitch Engage Chords & Tabs

Version: 1 Type: Bass Tab 0 ratings
1 star 2 stars 3 stars 4 stars 5 stars
comments

Just Barely Breathing Bass Tab

   
Band- Killswitch Engage
Song- Just Barely Breathing

Tuning: C,G,C,F

Intro

F:-----------------]
C:-----------------]
G:-----------------]
C:--8888888888888--]

Verse 1

F:------------------------------------------------------------------------------
C:------------------------------------------------------------------------------
G:-----------7777---5555---3333---5555------------------------------------------
C:--0---0-0-----------------------------------8---0-8-00-8-00-8-000---3-0---3-0-continued 

---------------------------------------------------]
--7777---5555---3333---5555------------------------]
---------------------------------------------------]
------------------------------------8888888888888--]

Intro to Verse 2
[ Tab from: http://www.guitartabs.cc/tabs/k/killswitch_engage/just_barely_breathing_btab.html ]
F:--------------------------------------]
C:--------------------------------------]
G:--------------------------------------]
C:--(0)--------(0)--------0--------(0)--]

Verse 2

F:-----------------------------------------------------------------------------]
C:-----------------------------------------------------------------------------]
G:-----------------------------------------------------------------------------]
C:--12-00---12-00-12-0-13-0000-12-00-10-00---12-00---12-00---10-00-10-00-9-0-8-]

Chorus

F:--------------------------------------------------------------------------]
C:--------------------------------------------------------------------------]
G:--------------------------------------------------------------------------]
C:--0-0---0-00-0-0---8-8---8-88-8-8---5-5---5-55-5-5---5-5---5---5---8-8-8--]
Outro/ Interlude

F:---------------]
C:---------------]
G:---------------]
C:--8-0---0---0--]

F:------------------------------------]
C:--00---33---55---77---55---33---00--]
G:------------------------------------]
C:------------------------------------]
Comments