Killswitch Engage - Inhale Chords & Tabs

 

Inhale Chords & Tabs

Killswitch Engage Chords & Tabs

Version: 2 Type: Tab 0 ratings
1 star 2 stars 3 stars 4 stars 5 stars
comments

Inhale Tab

   
  Hey i am new and it only took me like... 20 minutes to tab this and it sounds perfect,
well perfect if the background stuff was in there. well i dont want to keep you all 
so.......
   Tunning: EADGBE

__________________________________________________________________________
[ Tab from: http://www.guitartabs.cc/tabs/k/killswitch_engage/inhale_tab_ver_2.html ]
        F                             C F
 E----1--1-1-1-1--1-1-1-1-1--1-1------0-1-x-----------|
 B----1--1-1-1-1--1-1-1-1-1--1-1------1-1-x-----------|
 G----2--2-2-2-2--2-2-2-2-2--2-2--x3--0-2-5-----------| Repeat
 D----3--3-2-3-3--3-3-3-3-3--3-3------2-3-5-----------|
 A----3--3-3-3-3--3-3-3-3-3--3-3------3-3-3-----------|
 E----------------------------------------x-----------|


 E--1--1--3--1-1--1--1--5-3-1--1--1--3--1-5-3-1-0------|
 B-------------------------------------------------2~--|
 G-----------------------------------------------------|
 D-----------------------------------------------------|
 A-----------------------------------------------------|
 E-----------------------------------------------------|

               Sorry i would put more but my dad needs the computer but you just keep 
this until you get the hang of it...   oh during the end the da da daaa is played on B: 
G: -5~-  well thats it  i have to go now/ until next time.....
Comments