Killswitch Engage - Breathe Life Chords & Tabs

 

Breathe Life Chords & Tabs

Killswitch Engage Chords & Tabs

Version: 1 Type: Tab 0 ratings
1 star 2 stars 3 stars 4 stars 5 stars
comments

Breathe Life Tab

Author/Artist: Killswitch Engage
Title: Breathe Life
Album: The End of Heartache
Transcribed by: Matt Kent
Email: mek8283@rit.edu

Credits: This is based on the first tab for this song that showed up on MxTabs.
I cleaned up a few parts and added the second guitar and bridge. I think this
is pretty much everything except the solo. Enjoy!


Intro/Verse:
d|----------------------------------------------------------------------------|
A|----------------------------------------------------------------------------|
F|----------------------------------------------------------------------------|
C|--x/-----------0-0-0-000----------------------------------------------------|
G|--x/----5h6p5--0-0-0-000--10h12p10---8h10p8---6h8p6--5h6p5------------------|
C|--x/-----------0-0-0-000-----------0--------0-------------------------------|
                 pm.......           .        .

d|----------------------------------------------------------------------------|
A|----------------------------------------------------------------------------|
F|----------------------------------------------------------------------------|
C|--0-0-0-000-----------------------------------------------------------------|
G|--0-0-0-000-----------------------------------------------------------------|
C|--0-0-0-000--5h7p5-0-3h5p3-0-1h3p1-0h1p0------------------------------------|
    pm.......        .       .

d|----------------------------------------------------------------------------|
A|----------------------------------------------------------------------------|
F|----------------------------------------------------------------------------|
C|--0-0-0-000-----------------------------------------------------------------|
G|--0-0-0-000--10h12p10---8h10p8---6h8p6--5h6p5-------------------------------|
C|--0-0-0-000-----------0--------0--------------------------------------------|
    pm.......           .        .

(fill - guitar one)
d|----------------------------------------------------------------------------|
A|----------------------------------------------------------------------------|
F|----------------------------------------------------------------------------|
C|--0-0-0-000---------10-8p7-8-7----------------------------------------------|
G|--0-0-0-000--7h8-10------------10p7-----------------------------------------|
C|--0-0-0-000-----------------------------------------------------------------|
    pm.......
[ Tab from: http://www.guitartabs.cc/tabs/k/killswitch_engage/breathe_life_tab.html ]
(fill - guitar two)
d|----------------------------------------------------------------------------|
A|----------------------------------------------------------------------------|
F|----------------------------------------------------------------------------|
C|--0-0-0-000---------8-8-----------------------------------------------------|
G|--0-0-0-000--7h8-10-----10p8-10-8-8p7---------------------------------------|
C|--0-0-0-000-----------------------------------------------------------------|
    pm.......


Pre-Chorus:
d|----------------------------------------------------------------------------|
A|----------------------------------------------------------------------------|
F|---------------------------------3-------5----------------------------------|
C|--000-000----000-000----000-0-0--3--0-0--5--0-0-----------------------------|
G|--000-000----000-000----000-0-0--1--0-0--3--0-0-----------------------------|
C|--000-000----000-000----000-0-0-----0-0-----0-0-----------------------------|
    pm...........................     . .     . .


Chorus:
d|----------------------------------------------------------------------------|
A|----------------------------------------------------------------------------|
F|----------------------------------------------------------------------------|
C|--0----10--8----7--5----3--0--00-00-0--0--00-00-0---------------------------|
G|--0----10--8----7--5----3--0--00-00-0--0--00-00-0---------------------------|
C|--0----10--8----7--5----3--0--00-00-0--0--00-00-0---------------------------|
                                pm...       pm...

Bridge:
d|----------------------------------------------------------------------------|
A|----------------------------------------------------------------------------|
F|----------------------------------------------------------------------------|
C|--1p0-0-0-0-0--00--0--5-5/7-7/8-8\5----1p0-0-0-0-0--00--0--1-1/3-3/4-4\1----|
G|--1p0-0-0-0-0--00--0--3-3/5-5/6-6\3----1p0-0-0-0-0--00--0--1-1/3-3/4-4\1----|
C|--1p0-0-0-0-0--00--0-------------------1p0-0-0-0-0--00--0--1-1/3-3/4-4\1----|
        pm.....      .                       pm.....      .

d|----------------------------------------------------------------------------|
A|----------------------------------------------------------------------------|
F|----------------------------------------------------------------------------|
C|--1p0-0-0-0-0--00--0--5-5/7-7/8-8\5----1p0-0-0-0-0--00--0--0h1-1------------|
G|--1p0-0-0-0-0--00--0--3-3/5-5/6-6\3----1p0-0-0-0-0--00--0--0h1-1-<3>--------|
C|--1p0-0-0-0-0--00--0-------------------1p0-0-0-0-0--00--0--0h1-1------------|
        pm.....      .                       pm.....      .      .
Comments