Killswitch Engage - And Embers Rise Chords & Tabs

 

And Embers Rise Chords & Tabs

Killswitch Engage Chords & Tabs

Version: 1 Type: Tab 0 ratings
1 star 2 stars 3 stars 4 stars 5 stars
comments

And Embers Rise Tab

Tuning- DGCFAD

Just repeat these riffs as many times as needed.

Gtr.1
|-5-------5-------5-------5--------|
|---6---6---6---6---6---6---6---6--|
|-----7-------7-------7-------7---*|
|---------------------------------*|
|----------------------------------|
|----------------------------------|
[ Tab from: http://www.guitartabs.cc/tabs/k/killswitch_engage/and_embers_rise_tab.html ]
Gtr.2
|---8--6--5---6-5--3---5--3--0--1--3--5--|
|--10--8--6---8-6--5---6--5--1--3--5--6--|
|-----------------------------------------|
|-----------------------------------------|
|-----------------------------------------|
|-----------------------------------------|

Gtr.2 (Con't)
|---8--6--5---6--5--3---5--6---8--10-10-10--|
|--10--8--6---8--6--5---6--8--10--11-11-11--|
|-------------------------------------------|
|-------------------------------------------|
|-------------------------------------------|
|-------------------------------------------|
Comments