Killswitch Engage - A Bid Farwell Chords & Tabs

 

A Bid Farwell Chords & Tabs

Killswitch Engage Chords & Tabs

Version: 1 Type: Tab 0 ratings
1 star 2 stars 3 stars 4 stars 5 stars
comments

A Bid Farwell Tab

Riff 1 
|---------------------------8------|
|-------10--------10---------------|
|---8---------8---------8----------|
|-0---0-----0---0-----0---0--------|
|----------------------------------|
|----------------------------------|

Riff 2
|--------------------------------------------------------|
|--------------------------------------------------------|
|--------------------------------------------------------|
|--------------------------------------------------------|
|-0-0-0--0--0--0--0-0-0--0--0--0--0-0-0--0--0-0-0-0-3----|
|-0-0-0--0--0--0--0-0-0--0--0--0--0-0-0--0--0-0-0-0-3----|

Riff 3
|----------------------------------------------------------|
|----------------------------------------------------------|
|----------------------------------------------------------|
|----------------------------------------------------------|
|-------1h2---1h2--------1h2---1h2--------1h2-------2h3----|
|-0-0-0-1h2-0-1h2--0-0-0-1h2-0-1h2--0-0-0-1h2-0-0-0-2h3----|
|
|----------------------------------------------------------|
|----------------------------------------------------------|
|----------------------------------------------------------|
|----------------------------------------------------------|
|-------6h7---6h7--------6h7---6h7--------6h7-------7h8----|
|-0-0-0-----0------0-0-0-----0------0-0-0-----0-0-0--------|

Riff 4 (play each note twice)
|---------------------------------------------------------|
|---------------------------------------------------------|
|---------------------------------------------------------|
|-7------7------------------------------------------------|
|---10-8---10-8-10-8-7-10-8-7-7-7-7-8-8-10-8-8-8-8-8-8----|
|---------------------------------------------------------|
|
|---------------------------------------------------------|
|---------------------------------------------------------|
|---------------------------------------------------------|
|-3--2---3--2----2------2----------------2----------------|
|------5------5----5-3----5-3-3-3-3-5-5----5-5-5-5-5-5----|
|---------------------------------------------------------|

Riff 5 (play each note twice)
|-----------------------------------------------------------|
|-----------------------------------------------------------|
|-----------------------------------------------------------|
|-7------7------10-7----10-7--------------------------------|
|---10-8---10-8------10------10-7-7-7-8-8-10-8-8-8-8-8-8----|
|-----------------------------------------------------------|
|
|-----------------------------------------------------------|
|-----------------------------------------------------------|
|-----------------------------------------------------------|
|-3--2---3--2----5-3--2--5-3--2------------2----------------|
|------5------5-----------------3-3-3-5-5----5-5-5-5-5-5----|
|-----------------------------------------------------------|

Riff 6
|-----------------------------------------------------------------|
|-----------------------------------------------------------------|
|-----------------------------------------------------------------|
|--------------------5--------------2-----------3-----------------|
|--0-----------------3--------------0-----------1------------0----|
|--0-----------------------------------------------------3-2-0----|
|
|-----------------------------------------------------------------|
|-----------------------------------------------------------------|
|-14-12-10-14-12-10-12-10--9-12-10--9---9--10--10-12-10-----------|
|-----------------------------------------------------------------|
|-----------------------------------------------------------------|
|-----------------------------------------------------------------|
|
|-----------------------------------------------------------------|
|-----------------------------------------------------------------|
|-10--9--7-10--9--7--9--7-----9--7----------7---7--9--7-----------|
|-------------------------10-------10--10-------------------------|
|-----------------------------------------------------------------|
|-----------------------------------------------------------------|

Riff 7
|-------------------------------------------------------------|
|-------------------------------------------------------------|
|-------------------------------------------------------------|
|--------------------5------------2-----------3---------------|
|--0-----------------3------------0-----------1---------------|
|--0---------------------------------------------------3-2----|
|
|-------------------------------------------------------------|
|-------------------13-10-8-13-10-8---------------------------|
|-14-12-10-14-12-10-------------------9--10--10-12-10---------|
|-------------------------------------------------------------|
|-------------------------------------------------------------|
|-------------------------------------------------------------|
|
|-------------------------------------------------------------|
|-------------------------------------------------------------|
|-10--9--7-10--9--7-12-10-9-12-10-9-------7---7--9--7---------|
|------------------------------------10-----------------------|
|-------------------------------------------------------------|
|-------------------------------------------------------------|

Riff 8
|---------------------------------------------------|
|---------------------------------------------------|
|---------------------------------------------------|
|---------------------------------------------------|
|-2-2-2-3-3-5-2-2-2-3-3-5-2-2-2-3-3-5-2----2-3-0----|
|-2-2-2-3-3-5-2-2-2-3-3-5-2-2-2-3-3-5-2----2-3-0----|

Riff 9
|-------------------------------------------|
|-------------------------------------------|
|-------------------------------------------|
|-------------------------------------------|
|--------------------------------3----------|
|-0--0-0-0-0--0-0-0-0--0-0-3h5-5---5-5-3----|
     . . .    . . .    . .  

Riff 10
|------------------------------------------|
|------------------------------------------|
|------------------------------------------|
|------------------------------------------|
|---------------------------------3h5-5----|
|-0--0-0-0-0--0-0-0-0--0-0-3h5-5-----------|
     . . .    . . .    . .
[ Tab from: http://www.guitartabs.cc/tabs/k/killswitch_engage/a_bid_farwell_tab.html ]
Riff 11
|------------------------------------------------------------------------|
|------------------------------------------------------------------------|
|------------------------------------------------------------------------|
|------------------------------------------------------------------------|
|------------------------------------------------------------------------|
|-5-5-5-5-5-5-5-5-5-5-5-5-7-7--7-7--7-7-7-7--7-7--7-7-8--8--8-8--8--8----|
|
|------------------------------------------------------------------------|
|------------------------------------------------------------------------|
|------------------------------------------------------------------------|
|------------------------------------------------------------------------|
|-------5-----------5------------7-------------7--------------8----------|
|-5-7-8---8-7-5-7-8---8-7-7-8-10---10-8-7-8-10---10-8-8-10-12---12-10----|

Riff 11 (continued)
|-------------------------------------------------------|
|-------------------------------------------------------|
|-------------------------------------------------------|
|-------------------------------------------------------|
|-------------------------------------------------------|
|-8--8--8-8--8--8-8--8--8--8--8--8-10-10-10-10-10-10----|
|
|-------------------------------------------------------|
|-------------------------------------------------------|
|-------------------------------------------------------|
|-------------------------------------------------------|
|---------8---------------10----------------12----------|
|-8-10-12---12-10-8-10-12----12-10-10-12-15----15-12----|

Riff 12
|------------------------------------------------------------------------|
|------------------------------------------------------------------------|
|------------------------------------------------------------------------|
|-------------------------2---------------------------3------------------|
|-5-----------------------0---------------------------1------------------|
|-5-----------------------2---------------------------3------------------|
|
|------------------------------------------------------------------------|
|------------------------------------------------------------------------|
|------------------------------------------------------------------------|
|------------------------------------------------------------------------|
|-------5-----------5------------7-------------7--------------8----------|
|-5-7-8---8-7-5-7-8---8-7-7-8-10---10-8-7-8-10---10-8-8-10-12---12-10----|

Riff 12 (continued)
|-------------------------------------------------------|
|-------------------------------------------------------|
|-------------------------------------------------------|
|-----------------------------------5-------------------|
|-----------------------------------3-------------------|
|-----------------------------------5-------------------|
|
|-------------------------------------------------------|
|-------------------------------------------------------|
|-------------------------------------------------------|
|-------------------------------------------------------|
|---------8---------------10----------------12----------|
|-8-10-12---12-10-8-10-12----12-10-10-12-15----15-12----|

Riff 13
|------------------------------------------------------------------------|
|------------------------------------------------------------------------|
|------------------------------------------------------------------------|
|-------------------------2---------------------------3------------------|
|-5-----------------------0---------------------------1------------------|
|-5-----------------------2---------------------------3------------------|
|
|------------------------------------------------------------------------|
|------------------------------------------------------------------------|
|------------------------------------------------------------------------|
|------------------------------------------------------------------------|
|-------5-----------5------------7-------------7--------------8----------|
|-5-7-8---8-7-5-7-8---8-7-7-8-10---10-8-7-8-10---10-8-8-10-12---12-10----|

Riff 13 (continued)
|--------------------------------------|
|--------------------------------------|
|--------------------------------------|
|------------------5--5--5--5--5--5----|
|------------------3--3--3--3--3--3----|
|------------------5--5--5--5--5--5----|
|
|--------------------------------------|
|--------------------------------------|
|--------------------------------------|
|--------------------------------------|
|---------8-------10-10-10-10-10-10----|
|-8-10-12---12-10-10-10-10-10-10-10----|

Riff 14
|---------------------------------------------------------------------|
|---------------------------------------------------------------------|
|---------------------------------------------------------------------|
|--------------------5--5--5--5--5--5-2--2-2--2-2--2--3--3-3-3--------|
|--0--0--0--0--0--0--3--3--3--3--3--3-0--0-0--0-0--0--1--1-1-1-3-2----|
|--0--0--0--0--0--0--5--5--5--5--5--5-2--2-2--2-2--2--3--3-3---3-2----|
|
|---------------------------------------------------------------------|
|---------------------------------------------------------------------|
|-14-12-10-14-12-10-12-10--9-12-10--9----9---10---10-12-10------------|
|---------------------------------------------------------------------|
|---------------------------------------------------------------------|
|---------------------------------------------------------------------|
|
|---------------------------------------------------------------------|
|---------------------------------------------------------------------|
|-10--9--7-10--9--7--9--7-----9--7------------7----7--9--7------------|
|-------------------------10-------10---10----------------------------|
|---------------------------------------------------------------------|
|---------------------------------------------------------------------|

Riff 15
|---------------------------------------------------------------------|
|---------------------------------------------------------------------|
|---------------------------------------------------------------------|
|--------------------5--5-5--5--5-5-2--2-2--2-2--2--3--3-3-3----------|
|--0--0--0--0--0--0--3--3-3--3--3-3-0--0-0--0-0--0--1--1-1-1-3-2-0----|
|--0--0--0--0--0--0--5--5-5--5--5-5-2--2-2--2-2--2--3--3-3---3-2-0----|
|
|---------------------------------------------------------------------|
|-------------------13-10-8-13-10-8-----------------------------------|
|-14-12-10-14-12-10--------------------9---10---10-12-10--------------|
|---------------------------------------------------------------------|
|---------------------------------------------------------------------|
|---------------------------------------------------------------------|
|
|---------------------------------------------------------------------|
|---------------------------------------------------------------------|
|-10--9--7-10--9--7-12-10-9-12-10-9---------7----7--9--7--------------|
|-------------------------------------10------------------------------|
|---------------------------------------------------------------------|
|---------------------------------------------------------------------|

Comments