Killswitch Engage - A Bid Farewell Chords & Tabs

 

A Bid Farewell Chords & Tabs

Killswitch Engage Chords & Tabs

Version: 1 Type: Bass Tab 0 ratings
1 star 2 stars 3 stars 4 stars 5 stars
comments

A Bid Farewell Bass Tab

   
Band- Killswitch Engage
Song- A Bid Farewell

Tuning C G C F

Here is the opener to the new album: enjoy


Intro: x8

|---------------------------------------------------------|
|---------------------------------------------------------|
|---------------------------------------------------------|
|-0-0-0--0-0-0----0-0-0--0--0-0---0-0-0--0-0-0-0-0-3--|

x2
|------------------------------------------------------------|
|------------------------------------------------------------|
|------------------------------------------------------------|
|-0-0-0-1/2-0-0---0-0-0-1/2--0-0---0-0-0-1/200-0-0-2/3--|


Verse:
x2
|---------------------------------------------------------|
|---------------------------------------------------------|
|---------------------------------------------------------|
|-0-0-0--0--0-0----0-0-0--0--0-0---0-0-0--0-0-0-0-0-3--|

x1
|------------------------------------------------------------|
|------------------------------------------------------------|
|------------------------------------------------------------|
|0-0-0-1/2--0-1/2---0-0-0-1/2-0-1/2---0-0-0-1/2-0-0-0-0-2/3-|

x1
|------------------------------------------------------------|
|------------------------------------------------------------|
|------------------------------------------------------------|
|0-0-0-1/2--0-1/2---0-0-0-1/2-0-1/2---0-0-0-1/2-0-0-0-0-12\-|


Pre-chorus: x1

|------------------------------------------------------------------------|
|------------------------------------------------------------------------|
|5-5-5-5-5-5-5-5-5-5-5-5-3-3-3-3-3-3-3-3-3-3-3-3-0-0-0-0-0-0-0-0-0-0-0-0-|
|------------------------------------------------------------------------|

-------------------------------------------------------------------------|
-------------------------------------------------------------------------|
-1-1-1-1-1-1-1-1-1-1-1-1-5-5-5-5-5-5-5-5-5-5-5-5-3-3-3-3-3-3-3-3-3-3-3-3-|
-------------------------------------------------------------------------|


-----------------------------------------|
-----------------------------------------|
-0-0-0-0-0-0-0-0-0-0-0-0-1-1-1-1-1-1-----|
--------------------------------------12\|


Chorus: x2

|----------------------------------------------|
|----------------------------------------------|
|------------3~---------0~--------1~----1------|
|-0~--------------------------------------3-2--|

Verse: x2, x1, x1

Bridge: x1

|------------------------------------------------|
|------------------------------------------------|
|------------------------------------------------|
|-2-2-2-3-3-5-2-2-2-3-3-5-2-2-2-3-3-5-2----2-3-0-|

Pre-chorus: x1

Chorus: x4

Interlude:
[ Tab from: http://www.guitartabs.cc/tabs/k/killswitch_engage/a_bid_farewell_btab.html ]
X1                x1
|----------------|------------------------------------------------------------|
|----------------|------------------------------------------------------------|
|----------------|----3-------------------------------------------------3h5-5-|
|-0~-------------|-3h5-530--0-00-0-0--0-0-0-0-0--0-00-0-0--3h5-5-------|

x1
--------------------------------------------|
--------------------------------------------|
----------------------------------------3---|
--0-0-0-0-0-0-0-0-0-0-0-0-0-0-0-3h5-530|

x1
------------------------------------------------------------|
------------------------------------------------------------|
----3-------------------------------------------------3h5-5-|
-3h5-530--0-00-0-0--0-0-0-0-0--0-00-0-0--3h5-5-------|

x1
----------------------------------------|
----------------------------------------|
----------------------------------------|
--0-0-0-0-0-0-0-0-0-0-0-0-0-0-0-12\|

x2
|-------------------------------------------------------------------------|
|-------------------------------------------------------------------------|
|-------------------------------------------------------------------------|
|-5-5-5-5-5-5-5-5-5-5-5-5-7-7-7-7-7-7-7-7-7-7-7-7-8-8-8-8-8-8-8-8-8-8-8-8-|

-------------------------------|
-------------------------------|
-------------------------------|
-8-8-8-8-8-8-10-10-10-10-10-10-|

|------------------------------------------------------|
|------------------------------------------------------|
|------------------------------------------------------|
|5~------------7~------------8~---------------10~------|

-----------------------------------------------------------------------------|
-----------------------------------------------------------------------------|
-----------------------------------------------------------------------------|
-5~------------7~------------8~------------10-10-10-10-10-10-10-10-10-10-12\-|

|------------------------------------------------------------------|
|------------------------------------------------------------------|
|------------------3-3-3-3-3-3-3-3-3-3-3-3-0-0-0-0-0-0-0-0-0-0-0-0-|
|0~----------------------------------------------------------------|

-------------------------------------------------------------------------|
-------------------------------------------------------------------------|
-1-1-1-1-1-1-1-1-1-1-1-1-5-5-5-5-5-5-5-5-5-5-5-5-3-3-3-3-3-3-3-3-3-3-3-3-|
-------------------------------------------------------------------------|

-----------------------------------------|
-----------------------------------------|
-0-0-0-0-0-0-0-0-0-0-0-0-1-1-1-1-1-1-----|
-------------------------------------12\-|

Chorus: x2

Chorus variation: x2

|------------------------------------------------|
|------------------------------------------------|
|------------3-3-3-3-3-3-0-0-0-0-0-0-1-1-1-1-----|
|0-0-0-0-0-0---------------------------------3-2-|

Outro:

|--------------|
|--------------|
|--------------|
|0~------------|
Comments