Killradio - Where Go We Chords & Tabs

 

Where Go We Chords & Tabs

Killradio Chords & Tabs

Version: 1 Type: Tab 0 ratings
1 star 2 stars 3 stars 4 stars 5 stars
comments

Where Go We Tab

-----------------------------------------------------------------------
			  Where Go We - Killradio
-----------------------------------------------------------------------
Tabbed by: Sam Johnson
Email: elcapitan@charter.net

Tuning: Flat

I got the chords from Jasten, the bands guitarist so I know its perfect but I don't
know the solo. The strumming pattern is down down up up down up for almost the whole
song, except the end of the Chorus and Riff which is down up down. Please rate!

Intro
eb|-------------------------------------------------------------------|
Bb|-------------------------------------------------------------------|
Gb|-------------------------------------------------------------------|
Db|--2-2-2-2-2-2-7-7-7-7-7-7-2-2-2-2-2-2-7-7-7-7-7-7------------------|
Ab|--2-2-2-2-2-2-7-7-7-7-7-7-2-2-2-2-2-2-7-7-7-7-7-7------------------|
Eb|--0-0-0-0-0-0-5-5-5-5-5-5-0-0-0-0-0-0-5-5-5-5-5-5------------------|

eb|-------------------------------------------------------------------|
Bb|-------------------------------------------------------------------|
Gb|-------------------------------------------------------------------|
Db|--2-2-2-2-2-2-7-7-7-7-7-7-9-9-9-9-9-9-9-9-9-9-9-9------------------|
Ab|--2-2-2-2-2-2-7-7-7-7-7-7-9-9-9-9-9-9-9-9-9-9-9-9------------------|
Eb|--0-0-0-0-0-0-5-5-5-5-5-5-7-7-7-7-7-7-7-7-7-7-7-7------------------|

Verse 1
eb|-------------------------------------------------------------------|
Bb|-------------------------------------------------------------------|
Gb|-------------------------------------------------------------------|
Db|--2-2-2-2-2-2-7-7-7-7-7-7-2-2-2-2-2-2-7-7-7-7-7-7------------------|
Ab|--2-2-2-2-2-2-7-7-7-7-7-7-2-2-2-2-2-2-7-7-7-7-7-7------------------|
Eb|--0-0-0-0-0-0-5-5-5-5-5-5-0-0-0-0-0-0-5-5-5-5-5-5------------------|

eb|-------------------------------------------------------------------|
Bb|-------------------------------------------------------------------|
Gb|-------------------------------------------------------------------|
Db|--2-2-2-2-2-2-7-7-7-7-7-7-9-9-9-9-9-9-9-9-9-9-9-9------------------|
Ab|--2-2-2-2-2-2-7-7-7-7-7-7-9-9-9-9-9-9-9-9-9-9-9-9------------------|
Eb|--0-0-0-0-0-0-5-5-5-5-5-5-7-7-7-7-7-7-7-7-7-7-7-7------------------|

Pre-Chorus
eb|-------------------------------------------------------------------|
Bb|-------------------------------------------------------------------|
Gb|--11-11-11-11-11-11-9-9-9-9-9-9------------------------------------|
Db|--11-11-11-11-11-11-9-9-9-9-9-9-9-9-9-9-9-9-7-7-7-7-7-7------------|
Ab|--9--9--9--9--9--9--7-7-7-7-7-7-9-9-9-9-9-9-7-7-7-7-7-7------------|
Eb|--------------------------------7-7-7-7-7-7-5-5-5-5-5-5------------|
[ Tab from: http://www.guitartabs.cc/tabs/k/killradio/where_go_we_tab.html ]
eb|-------------------------------------------------------------------|
Bb|-------------------------------------------------------------------|
Gb|--9-9-9-9-9-9------------------------------------------------------|
Db|--9-9-9-9-9-9-11-11-11-11-11-11-9-9-9-9-9-9-7----------------------|
Ab|--7-7-7-7-7-7-11-11-11-11-11-11-9-9-9-9-9-9-7----------------------|
Eb|--------------9--9--9--9--9--9--7-7-7-7-7-7-5----------------------|

Chorus
eb|-------------------------------------------------------------------|
Bb|-------------------------------------------------------------------|
Gb|-------------------------------------------------------------------|
Db|--2-2-2-2-2-2-7-7-7-7-7-7-2-2-2-2-2-2-7-7-7-7-7-7------------------|
Ab|--2-2-2-2-2-2-7-7-7-7-7-7-2-2-2-2-2-2-7-7-7-7-7-7------------------|
Eb|--0-0-0-0-0-0-5-5-5-5-5-5-0-0-0-0-0-0-5-5-5-5-5-5------------------|

eb|-------------------------------------------------------------------|
Bb|-------------------------------------------------------------------|
Gb|-------------------------------------------------------------------|
Db|--2-2-2-2-2-2-7-7-7-7-7-7-11-11-11-11-11-11------------------------|
Ab|--2-2-2-2-2-2-7-7-7-7-7-7-11-11-11-11-11-11------------------------|
Eb|--0-0-0-0-0-0-5-5-5-5-5-5-9--9--9--9--9--9-------------------------|

eb|-------------------------------------------------------------------|
Bb|-------------------------------------------------------------------|
Gb|-------------------------------------------------------------------|
Db|--9-9-9-9-9-9-7-7-7-7-7-7-7-7-7-7-7-7------------------------------|
Ab|--9-9-9-9-9-9-7-7-7-7-7-7-7-7-7-7-7-7------------------------------|
Eb|--7-7-7-7-7-7-5-5-5-5-5-5-5-5-5-5-5-5------------------------------|

Verse 2
eb|-------------------------------------------------------------------|
Bb|-------------------------------------------------------------------|
Gb|-------------------------------------------------------------------|
Db|--2--2-2--7--7-7--2--2-2--7--7-7--2--2-2--7--7-7-------------------|
Ab|--2--2-2--7--7-7--2--2-2--7--7-7--2--2-2--7--7-7-------------------|
Eb|--0--0-0--5--5-5--0--0-0--5--5-5--0--0-0--5--5-5-------------------|

eb|-------------------------------------------------------------------|
Bb|-------------------------------------------------------------------|
Gb|-------------------------------------------------------------------|
Db|--9-9-9-9-9-9-9-9-9-9-9-9------------------------------------------|
Ab|--9-9-9-9-9-9-9-9-9-9-9-9------------------------------------------|
Eb|--7-7-7-7-7-7-7-7-7-7-7-7------------------------------------------|

Riff
eb|-------------------------------------------------------------------|
Bb|-------------------------------------------------------------------|
Gb|-------------------------------------------------------------------|
Db|--11-11-11-11-11-11-9-9-9-9-9-9-7-7-7-7-7-7-7-7-7-7-7-7------------|
Ab|--11-11-11-11-11-11-9-9-9-9-9-9-7-7-7-7-7-7-7-7-7-7-7-7------------|
Eb|--9--9--9--9--9--9--7-7-7-7-7-7-5-5-5-5-5-5-5-5-5-5-5-5------------|

Song Order

Intro
Verse 1 x2
Pre-Chorus
Chorus
Verse 2
Verse 1
Pre-Chorus
Chorus x2
Riff 
Solo (If you have any idea how they play this, please email me!)
Chorus x2
Riff x2
Comments