Killradio - Scavenger Chords & Tabs

 

Scavenger Chords & Tabs

Killradio Chords & Tabs

Version: 2 Type: Tab 0 ratings
1 star 2 stars 3 stars 4 stars 5 stars
comments

Scavenger Tab

Intro (mute and distortion)
E------------------------------------------------------------|
B------------------------------------------------------------|
G-8-8-8-8-6-8-8-8-8-6-8--------------------------------------|
D-8-8-8-8-6-8-8-8-8-6-8--------------------------------------|
A-6-6-6-6-4-6-6-6-6-4-6--------------------------------------|
E------------------------------------------------------------|
    
Pre Verse-Chorus distortion only
E---------------------------------------------------------|
B---------------------------------------------------------|
G-----------6/8/6/8---------------------------------------|
D-6----2----6/8/6/8---------------------------------------|
A-6----2----4/6/4/6---------------------------------------|
E-4----0--------------------------------------------------|x2

(in this part after the verese's lyrics you play this):
Verse

E----------------------------------------|
B----------------------------------------|
G----6-----------------------------------|
D-6--6--4--2--1--------------------------|
A-6--4--4--2--1--------------------------|
E-4-----2--0--x--------------------------|x4

Chorus

E---------------------------------------------------------|
B---------------------------------------------------------|
G-----------6/8/6/8---------------------------------------|
D-6----2----6/8/6/8---------------------------------------|
A-6----2----4/6/4/6---------------------------------------|
E-4----0--------------------------------------------------|

Verse 2 (distortion and mute)

E----------------------------------------|
B----------------------------------------|
G----------------------------------------|
D-6--4--6--------------------------------|
A-6--4--6--------------------------------|
E-4--2--4--------------------------------|x3
[ Tab from: http://www.guitartabs.cc/tabs/k/killradio/scavenger_tab_ver_2.html ]
E----------------------------------------|
B----------------------------------------|
G----6-----------------------------------|
D-6--6--4--2--1--------------------------|
A-6--4--4--2--1--------------------------|
E-4-----2--0--x--------------------------|x4

Chorus

E---------------------------------------------------------|
B---------------------------------------------------------|
G-----------6/8/6/8---------------------------------------|
D-6----2----6/8/6/8---------------------------------------|
A-6----2----4/6/4/6---------------------------------------|
E-4----0--------------------------------------------------|

bridge 1

E----------------------------------------|
B----------------------------------------|
G--8/6/9---------------------------------|
D--8/6/9---------------------------------|
A--6/4/9---------------------------------|
E----------------------------------------|x4

bridge 2

E----------------------------------------|
B----------------------------------------|
G----------------------------------------|
D-6--------------------------------------|
A-6--------------------------------------|
E-4--------------------------------------|x4

Chorus

E---------------------------------------------------------|
B---------------------------------------------------------|
G-----------6/8/6/8---------------------------------------|
D-6----2----6/8/6/8---------------------------------------|
A-6----2----4/6/4/6---------------------------------------|
E-4----0--------------------------------------------------|

Outro

E----------------------------------------|
B----------------------------------------|
G----6-----------------------------------|
D-6--6--4--2--1--------------------------|
A-6--4--4--2--1--------------------------|
E-4-----2--0--x--------------------------|x4

riff

E----------------------------------------|
B----------------------------------------|
G----8-6---------------------------------|
D--------9-8-9-8-6-----------------------|
A----------------------------------------|
E----------------------------------------|

well eny cuestion my mail is karimhe30@hotmail.com
Comments