Killradio - Scavenger Chords & Tabs

 

Scavenger Chords & Tabs

Killradio Chords & Tabs

Version: 1 Type: Tab 0 ratings
1 star 2 stars 3 stars 4 stars 5 stars
comments

Scavenger Tab

No1 has been tabbin any of this band's stuff so im gonna start...I am pretty sure this 
right for the most part, but the second verse is a little tricky so if any1 knows the 
version please fill me in...I did this by ear...

Just figure out the strum patterns...its an easy song for the most part..

KillRadio ~ Scavenger (drop 1/2)

Intro (x 2) *overdriven a bit*
E------------------------------------------------------------|
B------------------------------------------------------------|
G-2-2-2-2-2-2-2-2-2-2-2--------------------------------------|
D-2-2-2-2-2-2-2-2-2-2-2--------------------------------------|
A-0-0-0-0-0-0-0-0-0-0-0--------------------------------------|
E-----------------------0-3----------------------------------|
    * * * * * * * * * *

Chorus (chord progression) figure out the strumming *Distorted*
E---------------------------------------------------------|
B---------------------------------------------------------|
G-2--------------7----7-----------------------------------|
D-2----5----3----7----7-----------------------------------|
A-0----5----3----5----9-----------------------------------|
E------3----1---------------------------------------------|
"YEEEEEAAAAAAAAAA!!!!!!!!!!" or
"scavenger....have you heard...."
[ Tab from: http://www.guitartabs.cc/tabs/k/killradio/scavenger_tab.html ]
Verse 1 (chord progressions)
E----------------------------------------|
B----------------------------------------|
G-2----7---------------------------------|
D-2----7----3----------------------------|
A-0----5----3----------------------------|
E-----------1----------------------------|
"Know you by waste...not by your face...."
Back to chorus

Verse 2 (needs a lil work not too exact) i use upstorkes like a ska riff
E------------------------------------------|
B------------------------------------------|
G-2----7----5----7-------------------------|
D-2----7----5----7-------------------------|
A-0----9----7----9-------------------------|
E------------------------------------------|
"still sticky fingers find sticky situations..."

Bridge
E------------------------------------|
B------------------------------------|
G-2----------------------------------|
D-2---5---3--------------------------|
A-0---5---3--------------------------|
E-----3---1-Let ring-----------------|
"They find a way...."

Verse 3 (pretty easy here)
E-------------------------------|
B-------------------------------|
G-2-----------------------------|
D-2-----------------------------|
A-0-Let ring then mute it-------|
E-------------------------------|
"are you done, give me some, cause im fuckin hungry..."

Outro same as bridge(you can very this...with some lil leads over)
end on an F5 palm muted 2x
Comments