Killradio - Do You Know Knife In Your Back Chords & Tabs

 

Do You Know Knife In Your Back Chords & Tabs

Killradio Chords & Tabs

Version: 2 Type: Tab 0 ratings
1 star 2 stars 3 stars 4 stars 5 stars
comments

Do You Know Knife In Your Back Tab

   
Do you know - Killradio

Intro

	Am		C			Em
|-0-0-0-0-0-0-0------0-0-0-0-0--------0-0-0-0-0-0-0-0-0-0|
|-1-1-1-1-1-1-1------1-1-1-1-1--------0-0-0-0-0-0-0-0-0-0|
|-2-2-2-2-2-2-2------0-0-0-0-0--------0-0-0-0-0-0-0-0-0-0|
|-2-2-2-2-2-2-2------2-2-2-2-2--------2-2-2-2-2-2-2-2-2-2|
|-0-0-0-0-0-0-0------3-3-3-3-3--------2-2-2-2-2-2-2-2-2-2|
|-0-0-0-0-0-0-0------0-0-0-0-0--------0-0-0-0-0-0-0-0-0-0|

           Am		C			Em
|-0-0-0-0-0-0-0------0-0-0-0-0--------0-0-0-0-0-0-0-0-0-0|
|-1-1-1-1-1-1-1------1-1-1-1-1--------0-0-0-0-0-0-0-0-0-0|
|-2-2-2-2-2-2-2------0-0-0-0-0--------0-0-0-0-0-0-0-0-0-0|
|-2-2-2-2-2-2-2------2-2-2-2-2--------2-2-2-2-2-2-2-2-2-2|
|-0-0-0-0-0-0-0------3-3-3-3-3--------2-2-2-2-2-2-2-2-2-2|
|-0-0-0-0-0-0-0------0-0-0-0-0--------0-0-0-0-0-0-0-0-0-0|


Riff

|----------------------------------------------------------------------------------------------|
|---3-0---3-0------0------0-----0--------------3-0----3-0-----0-------0-------0----------------|
|---------------------------------------0-2-----------------------------------------------0-2--|
|--------------2-2---2-2---2-2---2-2-----------------------2-2---2-2------22----22-------------|
|-0-----3-------------------------------------0--------3---------------------------------------|
|----------------------------------------------------------------------------------------------|

|----------------------------------------------------------------------------------------------|
|---3-0---3-0------0------0-----0--------------3-0----3-0-----0-------0-------0----------------|
|---------------------------------------0-2-----------------------------------------------0-2--|
|--------------2-2---2-2---2-2---2-2-----------------------2-2---2-2------22----22-------------|
|-0-----3-------------------------------------0--------3---------------------------------------|
|----------------------------------------------------------------------------------------------|

Verse

..................................Palm mute.................................................


|--------------------------------------------------------------------------------|
|--------------------------------------------------------------------------------|
|-2-2-2-2-2-2-2-2----0-0-0-0-0-0-0-0---------------------------------------------|
|-2-2-2-2-2-2-2-2----2-2-2-2-2-2-2-2----2-2-2-2-2-2-2-2-2-2-2-2-2-2-2-2----------|
|-0-0-0-0-0-0-0-0----3-3-3-3-3-3-3-3----2-2-2-2-2-2-2-2-2-2-2-2-2-2-2-2----------|
|-----------------------------------------------0-0-0-0-0-0-0-0-0-0-0-0-0-0-0-0--|


..................................Palm mute.................................................


|--------------------------------------------------------------------------------|
|--------------------------------------------------------------------------------|
|-2-2-2-2-2-2-2-2----0-0-0-0-0-0-0-0---------------------------------------------|
|-2-2-2-2-2-2-2-2----2-2-2-2-2-2-2-2----2-2-2-2-2-2-2-2-2-2-2-2-2-2-2-2----------|
|-0-0-0-0-0-0-0-0----3-3-3-3-3-3-3-3----2-2-2-2-2-2-2-2-2-2-2-2-2-2-2-2----------|
|-----------------------------------------------0-0-0-0-0-0-0-0-0-0-0-0-0-0-0-0--|

..................................Palm mute.................................................


|--------------------------------------------------------------------------------|
|--------------------------------------------------------------------------------|
|-2-2-2-2-2-2-2-2----0-0-0-0-0-0-0-0---------------------------------------------|
|-2-2-2-2-2-2-2-2----2-2-2-2-2-2-2-2----2-2-2-2-2-2-2-2-2-2-2-2-2-2-2-2----------|
|-0-0-0-0-0-0-0-0----3-3-3-3-3-3-3-3----2-2-2-2-2-2-2-2-2-2-2-2-2-2-2-2----------|
|-----------------------------------------------0-0-0-0-0-0-0-0-0-0-0-0-0-0-0-0--|

..................................Palm mute.................................................


|--------------------------------------------------------------------------------|
|--------------------------------------------------------------------------------|
|-2-2-2-2-2-2-2-2----0-0-0-0-0-0-0-0---------------------------------------------|
|-2-2-2-2-2-2-2-2----2-2-2-2-2-2-2-2----2-2-2-2-2-2-2-2-2-2-2-2-2-2-2-2----------|
|-0-0-0-0-0-0-0-0----3-3-3-3-3-3-3-3----2-2-2-2-2-2-2-2-2-2-2-2-2-2-2-2----------|
|-----------------------------------------------0-0-0-0-0-0-0-0-0-0-0-0-0-0-0-0--|


Chorus


    Em	        C           D        Em	         C		Em		      C	       D
|-0-0-0----0-0-0----2-2-2----0----0-0-0----0-0-0----0-0-0-0----0-0-0----0-0-0----2-2-2--|
|-0-0-0----1-1-1----3-3-3----0----0-0-0----1-1-1----0-0-0-0----0-0-0----1-1-1----3-3-3--|
|-0-0-0----0-0-0----2-2-2----0----0-0-0----0-0-0----0-0-0-0----0-0-0----0-0-0----2-2-2--|
|-2-2-2----2-2-2----0-0-0----2----2-2-2----2-2-2----2-2-2-2----2-2-2----2-2-2----0-0-0--|
|-2-2-2----3-3-3---------------2----2-2-2----3-3-3----2-2-2-2----2-2-2----3-3-3---------|
|-0-0-0----0-0-0---------------0----0-0-0----0-0-0----0-0-0-0----0-0-0----0-0-0---------|



Em	      C		      D
|-0----0-0-0-0-0-0----2-2-2-2-2-2--|
|-0----1-1-1-1-1-1----3-3-3-3-3-3--|
|-0----0-0-0-0-0-0----2-2-2-2-2-2--|
|-2----2-2-2-2-2-2----0-0-0-0-0-0--|
|-2----3-3-3-3-3-3-----------------|
|-0----0-0-0-0-0-0-----------------|

    Em	        C           D        Em	         C		Em		      C	       D
|-0-0-0----0-0-0----2-2-2----0----0-0-0----0-0-0----0-0-0-0----0-0-0----0-0-0----2-2-2--|
|-0-0-0----1-1-1----3-3-3----0----0-0-0----1-1-1----0-0-0-0----0-0-0----1-1-1----3-3-3--|
|-0-0-0----0-0-0----2-2-2----0----0-0-0----0-0-0----0-0-0-0----0-0-0----0-0-0----2-2-2--|
|-2-2-2----2-2-2----0-0-0----2----2-2-2----2-2-2----2-2-2-2----2-2-2----2-2-2----0-0-0--|
|-2-2-2----3-3-3---------------2----2-2-2----3-3-3----2-2-2-2----2-2-2----3-3-3---------|
|-0-0-0----0-0-0---------------0----0-0-0----0-0-0----0-0-0-0----0-0-0----0-0-0---------|

  Em
|-0----2-2-2-2-2-2-2-2-2-2-2-2--|
|-0----3-3-3-3-3-3-3-3-3-3-3-3--|
|-0----2-2-2-2-2-2-2-2-2-2-2-2--|
|-2-----------------------------|
|-2-----------------------------|
|-0-----------------------------|


Riff

|----------------------------------------------------------------------------------------------|
|---3-0---3-0------0------0-----0--------------3-0----3-0-----0-------0-------0----------------|
|---------------------------------------0-2-----------------------------------------------0-2--|
|--------------2-2---2-2---2-2---2-2-----------------------2-2---2-2------22----22-------------|
|-0-----3-------------------------------------0--------3---------------------------------------|
|----------------------------------------------------------------------------------------------|

|----------------------------------------------------------------------------------------------|
|---3-0---3-0------0------0-----0--------------3-0----3-0-----0-------0-------0----------------|
|---------------------------------------0-2-----------------------------------------------0-2--|
|--------------2-2---2-2---2-2---2-2-----------------------2-2---2-2------22----22-------------|
|-0-----3-------------------------------------0--------3---------------------------------------|
|----------------------------------------------------------------------------------------------|




Verse

..................................Palm mute.................................................


|--------------------------------------------------------------------------------|
|--------------------------------------------------------------------------------|
|-2-2-2-2-2-2-2-2----0-0-0-0-0-0-0-0---------------------------------------------|
|-2-2-2-2-2-2-2-2----2-2-2-2-2-2-2-2----2-2-2-2-2-2-2-2-2-2-2-2-2-2-2-2----------|
|-0-0-0-0-0-0-0-0----3-3-3-3-3-3-3-3----2-2-2-2-2-2-2-2-2-2-2-2-2-2-2-2----------|
|-----------------------------------------------0-0-0-0-0-0-0-0-0-0-0-0-0-0-0-0--|
..................................Palm mute.................................................


|--------------------------------------------------------------------------------|
|--------------------------------------------------------------------------------|
|-2-2-2-2-2-2-2-2----0-0-0-0-0-0-0-0---------------------------------------------|
|-2-2-2-2-2-2-2-2----2-2-2-2-2-2-2-2----2-2-2-2-2-2-2-2-2-2-2-2-2-2-2-2----------|
|-0-0-0-0-0-0-0-0----3-3-3-3-3-3-3-3----2-2-2-2-2-2-2-2-2-2-2-2-2-2-2-2----------|
|-----------------------------------------------0-0-0-0-0-0-0-0-0-0-0-0-0-0-0-0--|

..................................Palm mute.................................................

[ Tab from: http://www.guitartabs.cc/tabs/k/killradio/do_you_know_knife_in_your_back_tab_ver_2.html ]
|--------------------------------------------------------------------------------|
|--------------------------------------------------------------------------------|
|-2-2-2-2-2-2-2-2----0-0-0-0-0-0-0-0---------------------------------------------|
|-2-2-2-2-2-2-2-2----2-2-2-2-2-2-2-2----2-2-2-2-2-2-2-2-2-2-2-2-2-2-2-2----------|
|-0-0-0-0-0-0-0-0----3-3-3-3-3-3-3-3----2-2-2-2-2-2-2-2-2-2-2-2-2-2-2-2----------|
|-----------------------------------------------0-0-0-0-0-0-0-0-0-0-0-0-0-0-0-0--|

..................................Palm mute.................................................


|--------------------------------------------------------------------------------|
|--------------------------------------------------------------------------------|
|-2-2-2-2-2-2-2-2----0-0-0-0-0-0-0-0---------------------------------------------|
|-2-2-2-2-2-2-2-2----2-2-2-2-2-2-2-2----2-2-2-2-2-2-2-2-2-2-2-2-2-2-2-2----------|
|-0-0-0-0-0-0-0-0----3-3-3-3-3-3-3-3----2-2-2-2-2-2-2-2-2-2-2-2-2-2-2-2----------|
|-----------------------------------------------0-0-0-0-0-0-0-0-0-0-0-0-0-0-0-0--|




Chorus


    Em	        C           D        Em	         C		Em		      C	       D
|-0-0-0----0-0-0----2-2-2----0----0-0-0----0-0-0----0-0-0-0----0-0-0----0-0-0----2-2-2--|
|-0-0-0----1-1-1----3-3-3----0----0-0-0----1-1-1----0-0-0-0----0-0-0----1-1-1----3-3-3--|
|-0-0-0----0-0-0----2-2-2----0----0-0-0----0-0-0----0-0-0-0----0-0-0----0-0-0----2-2-2--|
|-2-2-2----2-2-2----0-0-0----2----2-2-2----2-2-2----2-2-2-2----2-2-2----2-2-2----0-0-0--|
|-2-2-2----3-3-3---------------2----2-2-2----3-3-3----2-2-2-2----2-2-2----3-3-3---------|
|-0-0-0----0-0-0---------------0----0-0-0----0-0-0----0-0-0-0----0-0-0----0-0-0---------|

  Em	      C		      D
|-0----0-0-0-0-0-0----2-2-2-2-2-2--|
|-0----1-1-1-1-1-1----3-3-3-3-3-3--|
|-0----0-0-0-0-0-0----2-2-2-2-2-2--|
|-2----2-2-2-2-2-2----0-0-0-0-0-0--|
|-2----3-3-3-3-3-3-----------------|
|-0----0-0-0-0-0-0-----------------|



  Em	        C           D        Em	         C		Em		      C	       D
|-0-0-0----0-0-0----2-2-2----0----0-0-0----0-0-0----0-0-0-0----0-0-0----0-0-0----2-2-2--|
|-0-0-0----1-1-1----3-3-3----0----0-0-0----1-1-1----0-0-0-0----0-0-0----1-1-1----3-3-3--|
|-0-0-0----0-0-0----2-2-2----0----0-0-0----0-0-0----0-0-0-0----0-0-0----0-0-0----2-2-2--|
|-2-2-2----2-2-2----0-0-0----2----2-2-2----2-2-2----2-2-2-2----2-2-2----2-2-2----0-0-0--|
|-2-2-2----3-3-3---------------2----2-2-2----3-3-3----2-2-2-2----2-2-2----3-3-3---------|
|-0-0-0----0-0-0---------------0----0-0-0----0-0-0----0-0-0-0----0-0-0----0-0-0---------|

  Em
|-0----2-2-2-2-2-2-2-2-2-2-2-2--|
|-0----3-3-3-3-3-3-3-3-3-3-3-3--|
|-0----2-2-2-2-2-2-2-2-2-2-2-2--|
|-2-----------------------------|
|-2-----------------------------|
|-0-----------------------------|

Riff

|----------------------------------------------------------------------------------------------|
|---3-0---3-0------0------0-----0--------------3-0----3-0-----0-------0-------0----------------|
|---------------------------------------0-2-----------------------------------------------0-2--|
|--------------2-2---2-2---2-2---2-2-----------------------2-2---2-2------22----22-------------|
|-0-----3-------------------------------------0--------3---------------------------------------|
|----------------------------------------------------------------------------------------------|

|----------------------------------------------------------------------------------------------|
|---3-0---3-0------0------0-----0--------------3-0----3-0-----0-------0-------0----------------|
|---------------------------------------0-2-----------------------------------------------0-2--|
|--------------2-2---2-2---2-2---2-2-----------------------2-2---2-2------22----22-------------|
|-0-----3-------------------------------------0--------3---------------------------------------|
|----------------------------------------------------------------------------------------------|

Middle

|-------------------------------------------------------------------------------------------|
|-------------------------------------------------------------------------------------------|
|--------------4-4-4-4----7-7-7-7----5-5-5-5-----------------4-4-4-4----7-7-7-7----5-5-5-5--|
|-5-5-5-5----4-4-4-4----7-7-7-7----5-5-5-5----5-5-5-5----4-4-4-4----7-7-7-7----5-5-5-5------|
|-5-5-5-5----2-2-2-2----5-5-5-5----3-3-3-3----5-5-5-5----2-2-2-2----5-5-5-5----3-3-3-3------|
|-3-3-3-3-------------------------------------------3-3-3-3---------------------------------|

|------------------------------------------------------------------------------------|
|------------------------------------------------------------------------------------|
|--------------4-4-4-4----7-7-7-7----5-5-5-5-----------------4-4-4-4----7-7-7-7-7-7--|
|-5-5-5-5----4-4-4-4----7-7-7-7----5-5-5-5----5-5-5-5----4-4-4-4----7-7-7-7-7-7------|
|-5-5-5-5----2-2-2-2----5-5-5-5----3-3-3-3----5-5-5-5----2-2-2-2----5-5-5-5-5-5------|
|-3-3-3-3-------------------------------------------3-3-3-3--------------------------|

Outtro

|-------------------------------------------------------------------------------------------------|
|---3-0-0--3-0-0--0------0-----0--------------3-0----3-0-------0-------0-------0------------------|
|------------------------------------------0-2-----------------------------------------------0-2--|
|--------------2-2-----2-2---2-2---2-2-----------------------2-2---2-2------22----22--------------|
|-0-------3-------------------------------------0--------3----------------------------------------|
|-------------------------------------------------------------------------------------------------|

|-------------------------------------------------------------------------------------------------|
|---3-0-0--3-0-0--0------0-----0--------------3-0----3-0-------0-------0-------0------------------|
|------------------------------------------0-2-----------------------------------------------0-2--|
|--------------2-2-----2-2---2-2---2-2-----------------------2-2---2-2------22----22--------------|
|-0-------3-------------------------------------0--------3----------------------------------------|
|-------------------------------------------------------------------------------------------------|

|-------------------------------------------------------------------------------------------------|
|---3-0-0--3-0-0--0------0-----0--------------3-0----3-0-------0-------0-------0------------------|
|------------------------------------------0-2-----------------------------------------------0-2--|
|--------------2-2-----2-2---2-2---2-2-----------------------2-2---2-2------22----22--------------|
|-0-------3-------------------------------------0--------3----------------------------------------|
|-------------------------------------------------------------------------------------------------|

|-------------------------------------------------------------------------------------------------|
|---3-0-0--3-0-0--0------0-----0--------------3-0----3-0-------0-------0-------0------------------|
|------------------------------------------0-2-----------------------------------------------0-2--|
|--------------2-2-----2-2---2-2---2-2-----------------------2-2---2-2------22----22--------------|
|-0-------3-------------------------------------0--------3----------------------------------------|
|-------------------------------------------------------------------------------------------------|

|-------------------------------------------------------------------------------------------------|
|---3-0-0--3-0-0--0------0-----0--------------3-0----3-0-------0-------0-------0------------------|
|------------------------------------------0-2-----------------------------------------------0-2--|
|--------------2-2-----2-2---2-2---2-2-----------------------2-2---2-2------22----22--------------|
|-0-------3-------------------------------------0--------3----------------------------------------|
|-------------------------------------------------------------------------------------------------|

|-------------------------------------------------------------------------------------------------|
|---3-0-0--3-0-0--0------0-----0--------------3-0----3-0-------0-------0-------0------------------|
|------------------------------------------0-2-----------------------------------------------0-2--|
|--------------2-2-----2-2---2-2---2-2-----------------------2-2---2-2------22----22--------------|
|-0-------3-------------------------------------0--------3----------------------------------------|
|-------------------------------------------------------------------------------------------------|
Comments