Killradio - Do You Know Knife In Your Back Chords & Tabs

 

Do You Know Knife In Your Back Chords & Tabs

Killradio Chords & Tabs

Version: 1 Type: Tab 0 ratings
1 star 2 stars 3 stars 4 stars 5 stars
comments

Do You Know Knife In Your Back Tab

----------------------------------------------------------------------------
		Do You Know (Knife In Your Back) - Killradio
----------------------------------------------------------------------------
Tabbed by: Sam Johnson
Email: elcapitan@charter.net

Tuning: Flat

This is a great song and a great band. Check them out at killradiorevolution.com

Intro:
eb|---------------------------------------------------------------------|
Bb|---------------------------------------------------------------------|
Gb|----------5-5-5-5----------------------------------------------------|
Db|--7-7-7-7-5-5-5-5-2-2-2-2-2-2-2-2------------------------------------|
Ab|--7-7-7-7-3-3-3-3-2-2-2-2-2-2-2-2------------------------------------|
Eb|--5-5-5-5---------0-0-0-0-0-0-0-0------------------------------------| x2

Main Riff:
eb|----------------------------------------|
Bb|----------------------------------------|
Gb|---7-4---7-4-----4-----4-----4----------|
Db|-----------------------------------5-7--|
Ab|-------3-----7-7---7-7---7-7---7-7------|
Eb|-5--------------------------------------| x2
[ Tab from: http://www.guitartabs.cc/tabs/k/killradio/do_you_know_knife_in_your_back_tab.html ]
Verse: 
eb|---------------------------------------------------------------------|
Bb|---------------------------------------------------------------------|
Gb|---------3-----2-----------------------------------------------------|
Db|---7-----3-----2-----------------------------------------------------|
Ab|---7-----5-----0-----------------------------------------------------|
Eb|---5-----------------------------------------------------------------|

Chorus:
eb|---------------------------------------------------------------------|
Bb|---------------------------------------------------------------------|
Gb|----------5-5-5-5-7-7-7-7------------------5-5-5-5-------------------|
Db|--2-2-2-2-5-5-5-5-7-7-7-7-2-2-2-2--2-2-2-2-5-5-5-5-2-2-2-2-----------|
Ab|--2-2-2-2-3-3-3-3-5-5-5-5-2-2-2-2--2-2-2-2-3-3-3-3-2-2-2-2-----------|
Eb|--0-0-0-0-----------------0-0-0-0--0-0-0-0---------0-0-0-0-----------|

eb|---------------------------------------------------------------------|
Bb|---------------------------------------------------------------------|
Gb|----------5-5-5-5-7-7-7-7----------5-5-5-5-7-7-7-7-------------------|
Db|--2-2-2-2-5-5-5-5-7-7-7-7-2-2-2-2--5-5-5-5-7-7-7-7-------------------|
Ab|--2-2-2-2-3-3-3-3-5-5-5-5-2-2-2-2--3-3-3-3-5-5-5-5-------------------|
Eb|--0-0-0-0-----------------0-0-0-0------------------------------------| x2

Bridge:
eb|---------------------------------------------------------------------|
Bb|---------------------------------------------------------------------|
Gb|------------------7-7-7-7-5-5-5-5------------------------------------|
Db|--5-5-5-5-9-9-9-9-7-7-7-7-5-5-5-5------------------------------------|
Ab|--5-5-5-5-9-9-9-9-5-5-5-5-3-3-3-3------------------------------------|
Eb|--3-3-3-3-7-7-7-7----------------------------------------------------| x2

Hope you like it! Please rate
Comments