Killing Joke - Total Invasion Chords & Tabs

 

Total Invasion Chords & Tabs

Killing Joke Chords & Tabs

Version: 1 Type: Tab 0 ratings
1 star 2 stars 3 stars 4 stars 5 stars
comments

Total Invasion Tab

   

Song: 		Total Invasion
Band: 		Killing Joke
Album: 		Killing Joke (2003)
Guitarist: 	Geordie Walker
Transcribed by Eka Suma (kresnan@yahoo.com)  18 Sept 2004

This song showcases simple power chords in drop D tuning, allowing 
for one finger barre chords for most of the song, and alternating 
between dabs of palm muting and louder open chords.

I'm sure I've got the whole song down pat... but if that doesn't
appear to be the case, you can always drop me a line for any 
corrections, criticism, songs of praise, poems or whatever 8^)  

Enjoy.   


Tune lower E to D

main riff

     E       D         Eb      F#        

e:-----------------|-----------------|-----------------|-----------------|
b:-----------------|-----------------|-----------------|-----------------|
g:---x-------------|-----------------|-----------------|-----------------|
d:---2-2-2-2-0-0-0-|-0-1-1-1-1-4-4-4-|-4-2-2-2-2-0-0-0-|-0-1-1-1-1-4-4-4-|
a:---2-2-2-2-0-0-0-|-0-1-1-1-1-4-4-4-|-4-2-2-2-2-0-0-0-|-0-1-1-1-1-4-4-4-|
D:---2-2-2-2-0-0-0-|-0-1-1-1-1-4-4-4-|-4-2-2-2-2-0-0-0-|-0-1-1-1-1-4-4-4-|
     pm (palm mute)...	


e:-----------------|-----------------|-----------------|-----------------|
b:-----------------|-----------------|-----------------|-----------------|
g:-----------------|-----------------|-----------------|-----------------|
d:-4-2-2-2-2-0-0-0-|-0-1-1-1-1-4-4-4-|-4-2-2-2-2-0-0-0-|-0-1-1-1-1-4-4-4-|
a:-4-2-2-2-2-0-0-0-|-0-1-1-1-1-4-4-4-|-4-2-2-2-2-0-0-0-|-0-1-1-1-1-4-4-4-|
D:-4-2-2-2-2-0-0-0-|-0-1-1-1-1-4-4-4-|-4-2-2-2-2-0-0-0-|-0-1-1-1-1-4-4-4-|



2nd riff

     E       D         					   Eb      F#

e:-----------------|-----------------|-----------------|-----------------|
b:-----------------|-----------------|-----------------|-----------------|
g:-----------------|-----------------|-----------------|-----------------|
d:-4-2-2-2-2-0-0-0-|-0-2-2-2-2-0-0-0-|-0-2-2-2-2-0-0-0-|-0-1-1-1-1-4-4-4-|
a:-4-2-2-2-2-0-0-0-|-0-2-2-2-2-0-0-0-|-0-2-2-2-2-0-0-0-|-0-1-1-1-1-4-4-4-|
D:-4-2-2-2-2-0-0-0-|-0-2-2-2-2-0-0-0-|-0-2-2-2-2-0-0-0-|-0-1-1-1-1-4-4-4-|
..pm


----> to bass riff



main riff

e:-----------------|-----------------|-----------------|-----------------|
b:-----------------|-----------------|-----------------|-----------------|
g:-----------------|-----------------|-----------------|-----------------|
d:---2-2-2-2-0-0-0-|-0-1-1-1-1-4-4-4-|-4-2-2-2-2-0-0-0-|-0-1-1-1-1-4-4-4-|
a:---2-2-2-2-0-0-0-|-0-1-1-1-1-4-4-4-|-4-2-2-2-2-0-0-0-|-0-1-1-1-1-4-4-4-|
D:---2-2-2-2-0-0-0-|-0-1-1-1-1-4-4-4-|-4-2-2-2-2-0-0-0-|-0-1-1-1-1-4-4-4-|
     pm...                         ...pm  
[ Tab from: http://www.guitartabs.cc/tabs/k/killing_joke/total_invasion_tab.html ]
e:-----------------|-----------------|-----------------|-----------------||
b:-----------------|-----------------|-----------------|-----------------||
g:-----------------|-----------------|-----------------|-----------------||
d:-4-2-2-2-2-0-0-0-|-0-1-1-1-1-4-4-4-|-4-2-2-2-2-0-0-0-|-0-1-1-1-1-4-4-4-||
a:-4-2-2-2-2-0-0-0-|-0-1-1-1-1-4-4-4-|-4-2-2-2-2-0-0-0-|-0-1-1-1-1-4-4-4-||
D:-4-2-2-2-2-0-0-0-|-0-1-1-1-1-4-4-4-|-4-2-2-2-2-0-0-0-|-0-1-1-1-1-4-4-4-||
   pm...							 repeat 3x


---> to 2nd riff



chorus

     G                         Bb        Eb			   Bb G#

e:-----------------|-----------------|-----------------|-----------------|
b:---0-0-0-0-0-----|-----------------|-----------------|-----------------|
g:---0-0-0-0-0-----|-----------------|--(0)------------|-----------------|
d:-4-5-5-5-5-5-----|-----------8-(8)-|-0/1-1-1-1-1-----|-----------8-6---|
a:-4-5-5-5-5-5-----|-----------8-(8)-|-0/1-1-1-1-1-----|-----------8-6---|
D:-4-5-5-5-5-5-----|-----------8-(8)-|-0/1-1-1-1-1-----|-----------8-6---|
     louder                


e:-----------------|-----------------|-----------------|-----------------|
b:---0-0-0-0-0-----|-----------------|-----------------|-----------------|
g:---0-0-0-0-0-----|-----------------|--(0)------------|-----------------|
d:-6-5-5-5-5-5-----|-----------8-(8)-|-0/1-1-1-1-1-----|-----------8-6---|
a:-6-5-5-5-5-5-----|-----------8-(8)-|-0/1-1-1-1-1-----|-----------8-6---|
D:-6-5-5-5-5-5-----|-----------8-(8)-|-0/1-1-1-1-1-----|-----------8-6---|
								 repeat 2x


e:-----------------|-----------------|-----------------|-----------------|
b:---0-0-0-0-0-----|-----------------|-----------------|-----------------|
g:---0-0-0-0-0-----|-----------------|---0-0-0-0-------|-----------------|
d:-6-5-5-5-5-5-----|-----------8-(8)-|-0/1-1-1-1-------|-----------------|
a:-6-5-5-5-5-5-----|-----------8-(8)-|-0/1-1-1-1-------|-----------------|
D:-6-5-5-5-5-5-----|-----------8-(8)-|-0/1-1-1-1-------|-----------------|
                                       *---------------------------------*

-> back to main riff



3rd riff

   D       A         G#      F#    
    
e:-----------------|-----------------|-----------------|-----------------||
b:-----------------|-----------------|-----------------|-----------------||
g:(2)--------------|-----------------|-----------------|-----------------||
d:-0-----0-7-7-7-7-|-6-6-6-6-4-4-4-0-|-0---0-0-7-7-7-7-|-6-6-6-6-4-4-4-4-||
a:-0-----0-7-7-7-7-|-6-6-6-6-4-4-4-0-|-0---0-0-7-7-7-7-|-6-6-6-6-4-4-4-4-||
D:-0-----0-7-7-7-7-|-6-6-6-6-4-4-4-0-|-0---0-0-7-7-7-7-|-6-6-6-6-4-4-4-4-||
           pm...               ...pm           pm...               ...pm
								 repeat 2x			


-> back to main riff



* At end of song, substitute Chorus section (*--*) with :             

     Eb				       D	
e:-----------------|-----------------|(2)---------------|
b:---4(4)---(4)----|-----------------|(3)---------------|
g:-0/0-0-0---0-----|-----------------|-2----------------|
d:-4/5-5-5---5-----|-----------------|-0----------------|
a:-5/6-6-6---6-----|-----------------|-0----------------|
D:-x-x-------------|-----------------|-0----------------|
                                      let ring...  pm.   
										 		                 	




Comments