Killing Joke - Seeing Red Chords & Tabs

 

Seeing Red Chords & Tabs

Killing Joke Chords & Tabs

Version: 2 Type: Tab 0 ratings
1 star 2 stars 3 stars 4 stars 5 stars
comments

Seeing Red Tab

   
From: Eka Suma
Date: 2 Apr 2004

Song: Seeing Red
Band: Killing Joke
Album: Killing Joke (2003)
Guitarist: Geordie Walker
Transcribed by Eka Suma (kresnan@yahoo.com)

tuning:  lower E to D

Here's a fine number from Killing Joke's latest album notable
for its catchy riff.  Well, I thought so anyway.  Please feel
free to send any comments, suggestions or corrections
to kresnan@yahoo.com

Enjoy!


Intro - verse/main riff

4/4 time

  1   2   3   4                                repeat 4x to Chorus
e---------------|---------------|---------------|-----------------|
b---------------|---------------|---------------|-----------------|
g-2---2---2-2--2|---2---2--2-2-2|2---2---2-2---2|---2---2-2--2-2--|
d---------------|---------------|---------------|-----------------|
a---------------|---------------|---------------|-----------------|
D---------------|---------------|---------------|-----------------|


[Chorus]

D                C / D		 Em		 G
					       repeat 4x to Bridge
[ Tab from: http://www.guitartabs.cc/tabs/k/killing_joke/seeing_red_tab_ver_2.html ]
e-----(2)-------|---------------|---------------|-----------------|
b-3----3--------|-------3-------|------------3--|----------3------|
g-2----2--------|-5-5---5--5----|-0---0----0----|-0---0-0--0------|
d-0----0--------|-5-5---5--5-5--|-2---2----2----|-0---0-0--0------|
a---------------|-3-3---------3-|-2---2----2----|-5---5-5--x------|
D---------------|---------------|-2---2----2----|-5---5-5--x------|


[Bridge]

Bm				 Bb	    repeat 2x to main riff

e---------------|---------------|---------------|-----------------|
b-x------2------|---------------|---------------|-----------------|
g-4--4--4--4--4-|-4--4--4--4--4-|-3--3--3--3--3-|-3--3--3--3--3---|
d-4--4--4--4--4-|-4--4--4--4--4-|-3--3--3--3--3-|-3--3--3--3--3---|
a-2--2--2--2--2-|-2--2--2--2--2-|-1--1--1--1--1-|-1--1--1--1--1---|
D------------(0)|(0)------------|------------(0)|-(0)----(0)------|

riff to end :

e---------------|---------------||
b---------------|---------------||
g-2---2---2-2--2|---2---2--2-2-2||
d---------------|---------------||
a---------------|---------------||
D---------------|---------------||
Comments