Killing Heidi - Mascara Chords & Tabs

 

Mascara Chords & Tabs

Killing Heidi Chords & Tabs

Version: 1 Type: Tab 0 ratings
1 star 2 stars 3 stars 4 stars 5 stars
comments

Mascara Tab

Artist; killing heidi
song: mascara
tabbed by: Megan Maxwell
 yeah this tab is pretty much 100% correct i know this song really well and yeah.....it's easy as to play...so just have fun wif it 
normal tuning/ nothing special. + = up stroke -  = down stroke
[ Tab from: http://www.guitartabs.cc/tabs/k/killing_heidi/mascara_tab.html ]
e|--77777777--9--7--444444--77--555--x-x-x-x-x-x-x-x-x
b|--77777777--9--7--444444--77--555--x-x-x-x-x-x-x-x-x
g|--77777777--9--7--444444--77--555--x-x-x-x-x-x-x-x-x
d|--77777777--9--7--444444--77--555--5-5-5-5-5-5-5-5-5
a|--55555555--7--5--222222--77--555--5-5-5-5-5-5-5-5-5
e|--00000000--0--0--000000--55--333--0-2-3-0-2-3-0-2-3
(this part is played for the intro it's played 3 times from the very start of the song)
 
 
e|----------------------------------------------------|                                                                        
b|----------------------------------------------------|
g|--------7---------4--------------------------------|
d|-----7---7-----4----4---------5-----------7-----|   
a|--5----------2--------------5----5-----7---7----|
e|--------------------------3------------5-----------|
 
play this 6 X on the 6th one u play this straight after u finshed playing after the last string;
 
e|--777--999--555--777--|
b|--777--999--555--777--|
g|--777--999--555--777--|
d|--777--999--555--777--|
a|--555--999--555--777--|
e|--000--777--333--555--|
 
so it goes like this
e|--------------------------------------------------------------------------------------------------------------------------b|------------------------------------------------------------------------------------------------
g|--------7---------4------------------------------------------7--------------4-----
d|-----7---7-----4----4---------5-----------7----------7--------7------4-----4-----   
a|--5----------2--------------5----5-----7-----7----5----------------2------------
e|--------------------------3------------5-------------------------------------------
  stumbling.........................along looking at nothing........ect

CHORUS
watch for the strumming pattern

e|--7777777-55-999-7777-22322222232222
b|--7777777-55-999-7777-33333333333333
g|--7777777-55-999-7777-22222222222222
d|--7777777-55-999-7777-00000000000000
a|--5555555-55-999-7777-00000000000000
e|--0000000-33-777-5555-00000000000000
     +-+-+-+-  +-  --+   ++-+ +-+-+-+-+-+-+-+-+-

that’s mainly the whole song at the end of it you play the same as the intro
if u have ne commets please email me at maxwell_megan@hotmail.com or get me on msn thanx hope to hear from you soon love megan xxx ooo
Comments