Killers - Where Is She Chords & Tabs

 

Where Is She Chords & Tabs

Killers Chords & Tabs

Version: 1 Type: Tab 0 ratings
1 star 2 stars 3 stars 4 stars 5 stars
comments

Where Is She Tab

   
-------------------------------------------------------------------------------
			   WHERE IS SHE? - The Killers
-------------------------------------------------------------------------------
Tabbed by: SchadenFreude
Email: schadenfreude87@gmail.com

Tuning: Standard (EADGBe)


Intro: This comes in after the synth/ keyboard. (Play it twice)

e|------------------------------------------|
B|-13-12-10-12--13-12-10-12--12-13-12-10----|
G|---------------------------------------12-|
D|------------------------------------------|
A|------------------------------------------|
E|------------------------------------------|
[ Tab from: http://www.guitartabs.cc/tabs/k/killers/where_is_she_tab.html ]
e|------------------------------10----------|
B|-13-12-10-12--13-12-10-12--12----12-10----|
G|---------------------------------------12-|
D|------------------------------------------|
A|------------------------------------------|
E|------------------------------------------|


| That intro is played again twice When Brandon is singing "All these tears that we've cried"


| Outro: Play the intro again twice then

e|------------------------|
B|13-12-10-12--13-12-10---|
G|----------------------9-|
D|------------------------|
A|------------------------|
E|------------------------|



| That's the main lead... I don't know what the rythm bits are though, sorry.
| Would be grateful if anyone else posts it if they know.



| /  slide up
| \  slide down
| h  hammer-on
| p  pull-off
| ~  vibrato
| +  harmonic
| x  Mute note
===============================================================================
Comments