Killers - Somebody Told Me Chords & Tabs

 

Somebody Told Me Chords & Tabs

Killers Chords & Tabs

Version: 5 Type: Tab 0 ratings
1 star 2 stars 3 stars 4 stars 5 stars
comments

Somebody Told Me Tab

   
Killers - Somebody Told Me
Tabbed by LuckyJim (youdoittoyourself@hotmail.co.uk)

Eb Tuning (Eb Ab Db Gb Bb Eb)


Intro
-----

Eb [------------------------]
Ab [-0-----0------0------0--]
Db [-7-----9-----11-----12--] x2
Gb [------------------------]
Bb [------------------------]
Eb [------------------------]

Eb [---------------------------------------]
Ab [--0----0----0----0----0----0----0------]
Db [-11---12---14---12---11---12---11------]
Gb [---------------------------------------]
Bb [---------------------------------------]
Eb [---------------------------------------]


Verse
-----

Mute strings with finger and slide up to just
before 12th fret and back down fretboard again
then play:

Eb [-14-14-14-14-15-15-15-15-17-17-17-17-15-15-15-15-]
Ab [--0--0--0--0--0--0--0--0--0--0--0--0--0--0--0--0-]
Db [-11-11-11-11-12-12-12-12-14-14-14-14-12-12-12-12-]
Gb [-------------------------------------------------]
Bb [-------------------------------------------------]
Eb [-------------------------------------------------]


Bridge
------
[ Tab from: http://www.guitartabs.cc/tabs/k/killers/somebody_told_me_tab_ver_5.html ]
Eb [-----------------------------]
Ab [--0------0------0------0-----]
Db [-12-----14-----16-----19-----] play each note 8 times
Gb [-----------------------------]
Bb [-----------------------------]
Eb [-----------------------------]


Eb [----------------------------------------------]
Ab [-15-15-15-15-15-15-15-15-15-15-15-15-15-15\---]
Db [--0-14-14-14--0-14-14-14--0-14-14-14-14-14\---]
Gb [-12-12-12-12-12-12-12-12-12-12-12-12-12-12----]
Bb [----------------------------------------------]
Eb [----------------------------------------------]


Chorus
------

Eb [---2-----3-----5-----2---]
Ab [---3-----3-----5-----2---]
Db [---4-----4-----6-----3---]
Gb [---4-----5-----7-----4---]
Bb [---2-----5-----7-----4---]
Eb [-------------------------]



Outro
-----

Eb [-12--10----12--10----12--10--------------12-10-----------]
Ab [-----------------------------12-10-12-----------12-10-12-]
Db [---------------------------------------------------------]
Gb [---------------------------------------------------------]
Bb [---------------------------------------------------------] x2
Eb [---------------------------------------------------------]

Eb [--12--10-----------]
Ab [----------12-10-12-]
Db [-------------------]
Gb [-------------------] repeat
Bb [-------------------]
Eb [-------------------]

then chorus is played 1 more time
Comments