Killers - Somebody Told Me Chords & Tabs

 

Somebody Told Me Chords & Tabs

Killers Chords & Tabs

Version: 1 Type: Bass Tab 0 ratings
1 star 2 stars 3 stars 4 stars 5 stars
comments

Somebody Told Me Bass Tab

   
----------------------------------------------------------------------------
			     SOMEBODY TOLD ME - The Killers
----------------------------------------------------------------------------

Tabbed By :Jarmy
e-mail:ssj_bassist@yahoo.co.uk 

Tuning:Standard (E A D G

Intro
G|----16-16---14-14--12-12-11-11-11-12-11-11-11-------16-|
D|----------------------------------------------12-------|
A|-14-------14-------------------------------------14----|
E|-------------------------------------------------------|

G|----------------------------------|
D|-14-14-14-12-14-14-14-12----------|
A|-------------------------14p12h14-|
E|----------------------------------|
Verse part 1
G|-------------------------------------------------------------------------|
D|-------------------------------------------------------------------------|
A|-11111111111111111111111111111111----------------11111111111111111111111-|
E|---------------------------------2222222222222222------------------------|
[ Tab from: http://www.guitartabs.cc/tabs/k/killers/somebody_told_me_btab.html ]
G|-------------------------------------------|
D|-------------------------------------------|
A|-111111111---------------------------------|
E|----------22222222222222224444444444444444-|
Verse part 2
G|-------------------------------------------------------------------------|
D|-------------------------------------------------------------------------|
A|-11111111111111111111111111111111------------------------1111111111111111|
E|---------------------------------222222224444444444444444----------------|

G|----------------------------|
D|----------------------------|
A|----------------------------|
E|-22222222222222224444444444-|
Chorus
G|-----9-11------11-9----79----76-|
D|--------------------------------|
A|--------------------------------|
E|-5-77-----2-33-----3-55--5-22---|
Bridge
G|------------------------------------------------67--67--76---------------|
D|-5~-7~-----------------------5555555577777777-99--77--55--4(x8)7(x8)-----|
A|-------7~-----555--555-777777--------------------------------------------|
E|----------7-0----55------------------------------------------------------|

| /  slide up
| \  slide down
| h  hammer-on
| p  pull-off
| ~  vibrato
| +  harmonic
| x  Mute note
============================================================================
Comments