Killers - Smile Like You Mean It Chords & Tabs

 

Smile Like You Mean It Chords & Tabs

Killers Chords & Tabs

Version: 4 Type: Tab 0 ratings
1 star 2 stars 3 stars 4 stars 5 stars
comments

Smile Like You Mean It Tab

The Killers
Smile Like You Mean It
Hot Fuss

Tabbed by: seandabomb

Intro/Chorus:
E----------------------------------|
B-------12-11-11----12-11-11-------|
G-11-------------------------13-13-|
D----13----------13----------------|
A----------------------------------|
E----------------------------------|

Verse:
E-------------------------------------------------|
B-------------------------------------------------|
G-------11-------11-------11-------11-------13----|
D-13-13----13-13----13-13----13-13----13-13----13-|
A-------------------------------------------------|
E-------------------------------------------------|

[ Tab from: http://www.guitartabs.cc/tabs/k/killers/smile_like_you_mean_it_tab_ver_4.html ]
E-13----13----13----13----14----14----14----14----|
B----14----14----14----14----14----14----14----14-|
G-------------------------------------------------|
D-------------------------------------------------|
A-------------------------------------------------|
E-------------------------------------------------|

E-------------------------------------------------|
B--------------------------14----14----14----14---|
G-15----15----16----16----------------------------|
D----16----16----16----16----16----16----16----16-|
A-------------------------------------------------|
E-------------------------------------------------|

Solo:
E----------------------------------11-14----11-14----11-14----11-14-11--------------|
B----------------12-11-12-11-14-14-------14-------14-------14----------14-12-11-----|
G-13-13-11----11----------------------------------------------------------------13~-|
D----------13-----------------------------------------------------------------------|
A-----------------------------------------------------------------------------------|
E-----------------------------------------------------------------------------------|
Comments