Killers - Mr Brightside Chords & Tabs

 

Mr Brightside Chords & Tabs

Killers Chords & Tabs

Version: 10 Type: Tab 0 ratings
1 star 2 stars 3 stars 4 stars 5 stars
comments

Mr Brightside Tab

   
Mr. Brightside - The Killers

tabbed by: jay casanova
cooties

tuning: Eb

note: chords are relative to the tuning

INTRO (eto na rin ung pattern ng verse. capo on 12th fret, ibig sabihn, ibang gitara to)

eb-------------0---------------0---------------0---------------0--------|
bb-------3-------3-------3-------3-------3-------3-------3-------3------|
gb-----2---2-------2---2---2-------2---2---2-------2---2---3-------2----|
db---0-------0----------------------------------------------------------|
ab-------------------4-------4------------------------------------------|
eb-----------------------------------3-------3-------3-------3----------|

verse

	verse pattern same with intro
	D5-C#/D5-G5-


refrain (pati pattern nito may capo rin)

[ Tab from: http://www.guitartabs.cc/tabs/k/killers/mr_brightside_tab_ver_10.html ]
eb-------------0----------|------------0----------|------------0----------|
bb-------3-------3--------|------3-------3--------|------3-------3--------|
gb-----2---2-------2--(2x)|----2---2-------2--(2x)|----2---2-------2--(4x)|
db------------------------|-----------------------|-----------------------|
ab---2-------2------------|--0-------0------------|-----------------------|
eb------------------------|-----------------------|--3-------3------------|

	B5--A5--G5----


chorus

	D5-G5-B5-A5

adlib?  
	
	D5-G5-B5-A5 or D5-G5---A5	mejo may magkaparehong tunog kasi ang b at g


repeat verse, refrain and chorus


parang solo part

eb------------------------------------------|
bb----------------------1212----------------|
gb---11111111-1212-1414------1414-1212-1111-|
db------------------------------------------|

eb------------------------------------------|
bb------------------------------------------|  (2x)
gb---11111111-1212-1111---------------------|
db----------------------1414-1212-111111----|


ending

	D5-G5-B5-A5    (3x)
	D5-G5-B5-E5-D5-C#5

-end-

.i.am.the.unforgiven.
Comments