Killers - Mr Brightside Chords & Tabs

 

Mr Brightside Chords & Tabs

Killers Chords & Tabs

Version: 3 Type: Bass Tab 0 ratings
1 star 2 stars 3 stars 4 stars 5 stars
comments

Mr Brightside Bass Tab

   
-------------------------------------------------------------------------------
		        Mr. Brightside - The Killers
-------------------------------------------------------------------------------

Tabbed By : Spartan101
e-mail: zpro@sbcglobal.net

Tuning: standard

In the video he plays a stand-up bass, but whatever I guess. Either way I think this is what you'd play.

Intro/Verse (starts at "It started out with a kiss...")
G|------------------------------------|
D|------------------------------------|
A|------------------------------------| x2
E|-99999999-88888888-2222222222222222-|
continued
G|------------------------------------|
D|------------------------------------|
A|-------------------9999999999999999-|
E|-99999999-88888888------------------|
[ Tab from: http://www.guitartabs.cc/tabs/k/killers/mr_brightside_btab_ver_3.html ]
Pre-Chorus
G|-----------------------------------------------------------------|
D|----------3--1------------3--1------------1----------------------|
A|-11111111------4---------------4-------------4-3----------1--3-4-|
E|-----------------44444444--------22222222--------22222222--------|
continued
G|-------------------------------------------------------------------|
D|----------3--1------------3--1-------------------------------------|
A|---------------4---------------4--------------------------99999999-|
E|-11111111--------44444444--------222222221222222212222222----------|

Chorus
G|-------------------------------------|
D|----------44444444-------------------|
A|-44444444----------------------------| x6
E|-------------------66666666-44444444-|

Verse  x2 (second time: hit E2 and stop)
Verse  x2 (second time: play the continued part)
Pre-Chorus
Chorus x4 (hit and hold an A4 after you are done)

Bridge(drum roll) 
G|-------------|
D|-------8~\6~-|
A|-4~/9~-------|
E|-------------|

Then play Chorus x3,then play the following
G|-------------------------------------|
D|-------------------88888888-6--------|
A|-44444444-99999999------------6------|
E|--------------------------------4~~~-|



| /  slide up
| \  slide down
| h  hammer-on
| p  pull-off
| ~  vibrato
| +  harmonic
| x  Mute note
===============================================================================
Comments