Killers - Jenny Was A Frined Of Mine Chords & Tabs

 

Jenny Was A Frined Of Mine Chords & Tabs

Killers Chords & Tabs

Version: 1 Type: Bass Tab 0 ratings
1 star 2 stars 3 stars 4 stars 5 stars
comments

Jenny Was A Frined Of Mine Bass Tab

Song: Jenny was a friend of mine
Artist: The Killers
Album: Hot Fuss
Tabbed by: Jenny (blink182mestfan@netscape.net)
Tuning:Half step down

Sorry this is so long! i wanted to get it right, if there r n e problems please, feel 
to email me! and please rate!

Intro
Enter at 00:22
Gb-------------12-x-1212--------------|
Db------------------------------------|
Ab------------------------------------|
Eb------------------------------------|

Gb---------9-11-12------------5-4------|
Db---------------------------------5---|
Ab--777---------------555--------------|
Eb-------------------------------------|

Gb------------------------------------|
Db------------------------------------|
Ab-------------------10-9-------------|
Eb---888878/5--8-8-10-----10----------|

Gb-------------9-11-12----------5-4---|
Db----------------------------------5-|
Ab-----7/---------------5555----------|
Eb--------0---------------------------|

Gb------------------------------------|
Db------------------------------------|
Ab-------------------10-9-------------|
Eb---888878/5--8-8-10-----10----------|

Verse: 00:40

Gb-------------9-11-12----------5-4---|
Db----------------------------------5-|
Ab-----7/---------------5555----------|
Eb--------0---------------------------|
                                          x2
Gb------------------------------------|
Db------------------------------------|
Ab-------------------10-9-------------|
Eb---888878/5--8-8-10-----10----------|

Gb------------------------------5-4---|
Db----------------------------------5-|
Ab--7/----------------5555------------|
Eb-------0-0-2-3----------------------|

Gb------------------------------------|
Db------------------------------------|
Ab-------------------10-9-------------|
Eb---888878/5--8-8-10-----10----------|

Gb-------------9-11-12----------5-4---|
Db----------------------------------5-|
Ab-----7/---------------5555----------|
Eb--------0---------------------------|

Gb------------------------------------|
Db------------------------------------|
Ab------------------------------------|
Eb---888878/5--8888----10101010-------|
                    (these are 10's)
Pre Chours: 01:13

Gb------------------------------------|
Db------------------------------------|
Ab-3333-5555-7777-2222-3333-5555------|
Eb------------------------------------|

Chorus: 1:26
Gb------------------------------------|
Db------------------------------------|
Ab---10~-9~-7~-5~-33333333-5555\17----|
Eb------------------------------------|

Gb---------9-11-12------------5-4------|
Db---------------------------------5---|
Ab--777---------------555--------------|
Eb-------------------------------------|

Gb------------------------------------|
Db------------------------------------|
Ab-------------------10-9-------------|
Eb---888878/5--8-8-10-----10----------|

Gb-------------9-11-12----------5-4---|
Db----------------------------------5-|
Ab-----7/---------------5555----------|
Eb--------0---------------------------|

Gb------------------------------------|
Db------------------------------------|
Ab-------------------10-9-------------|
Eb---888878/5--8-8-10-----10----------|
[ Tab from: http://www.guitartabs.cc/tabs/k/killers/jenny_was_a_frined_of_mine_btab.html ]
Verse: 01:51
Gb-------------9-11-12----------5-4---|
Db----------------------------------5-|
Ab-----7/---------------5555----------|
Eb--------0---------------------------|
                                          x2
Gb------------------------------------|
Db------------------------------------|
Ab-------------------10-9-------------|
Eb---888878/5--8-8-10-----10----------|

Gb------------------------------5-4---|
Db----------------------------------5-|
Ab--7/----------------5555------------|
Eb-------0-0-2-3----------------------|

Gb------------------------------------|
Db------------------------------------|
Ab-------------------10-9-------------|
Eb---888878/5--8-8-10-----10----------|

Gb-------------9-11-12----------5-4---|
Db----------------------------------5-|
Ab-----7/---------------5555----------|
Eb--------0---------------------------|

Gb------------------------------------|
Db------------------------------------|
Ab------------------------------------|
Eb---888878/5--8888----10101010-------|
                    (these are 10's)


Gb------------------------------------|
Db------------------------------------|
Ab-3333-5555-7777-2222-3333-5555------|
Eb------------------------------------|


Gb------------------------------------|
Db------------------------------------|
Ab---10~-9~-7~-5~-33333333-5555\17----|
Eb------------------------------------|

Gb------------------------------------|
Db------------------------------------|
Ab-3333-5555-7777-2222-3333-5555------|
Eb------------------------------------|


Gb------------------------------------|
Db------------------------------------|
Ab---10~-9~-7~-5~-33333333-5555\17----|
Eb------------------------------------|

Bridge: 02:59
Gb----------------------12-12---------|
Db------------------------------------|
Ab--7~-\20----------------------------|
Eb------------------------------------|


Ending:

Gb---------9-11-12------------5-4------|
Db---------------------------------5---|
Ab--777---------------555--------------|
Eb-------------------------------------|

Gb------------------------------------|
Db------------------------------------|
Ab-------------------10-9-------------|
Eb---888878/5--8-8-10-----10----------|

Gb-------------9-11-12----------5-4---|
Db----------------------------------5-|
Ab-----7/---------------5555----------|
Eb--------0---------------------------|

Gb------------------------------------|
Db------------------------------------|
Ab-------------------10-9-------------|
Eb---888878/5--8-8-10-----10----------|

Gb------------------------------5-4---|
Db----------------------------------5-|
Ab--7/----------------5555------------|
Eb-------0-0-2-3----------------------|

Gb------------------------------------|
Db------------------------------------|
Ab-------------------10-9-------------|
Eb---888878/5--8-8-10-----10----------|

Gb------------------------------5-4---|
Db----------------------------------5-|
Ab--7/----------------5555------------|
Eb-------0-0-2-3----------------------|

Gb------------------------------------|
Db------------------------------------|
Ab-------------------10-9-------------|
Eb---888878/5--8-8-10-----10----------|

Gb-------------9-11-12----------5-4---|
Db----------------------------------5-|
Ab-----7/---------------5555----------|
Eb--------0---------------------------|

Gb------------------------------------|
Db------------------------------------|
Ab------------------------------------|
Eb---888878/5--8888----10101010---12~-|
                    (these are 10's)
Comments