Killers - Jenny Was A Friend Of Mine Chords & Tabs

 

Jenny Was A Friend Of Mine Chords & Tabs

Killers Chords & Tabs

Version: 4 Type: Bass Tab 0 ratings
1 star 2 stars 3 stars 4 stars 5 stars
comments

Jenny Was A Friend Of Mine Bass Tab

   
The Killers
Jenny Was a Friend of Mine
Tabbed by: Pitch Imperfect

\ = slide down
/ = slide up
r = let ring
~ = harmonic

This is an amazing tune in my opinion.  A bit hard at first but you'll get used to it
quick enough.  It may not be exactly the same as how the guy from the Killers plays it
(he might play the Db|-14-16-17 as Gb|-10-11-12) but this is how I play it.
I'm 99% sure this is all good.  Enjoy.

INTRO
Gb|-------------------------------------------------------------------------------------|
Db|-17-1717\------------14-16-17--------------------------------------------------------|
Ab|-------------------------------------------15-14-----------------------------10-9----|
Eb|----------12-1212-12----------10-1010-1010-------15-10-88-88-7-8\-5-7888-8-8------10-|

Gb|----------------------------------------------------------------------|
Db|------14-16-17--------------------------------------------------------|
Ab|----------------------------15-14-----------------------------10-9----|
Eb|-12\0----------10-1010-1010-------15-10-88-88-7-8\-5-7888-8-8------10-|

VERSE
Gb|----------------------------------------------------------------------|
Db|------14-16-17--------------------------------------------------------|
Ab|----------------------------15-14-----------------------------10-9----|
Eb|-12\0----------10-1010-1010-------15-10-88-88-7-8\-5-7888-8-8------10-|

Gb|----------------------------------------------------------------------|
Db|------14-16-17--------------------------------------------------------|
Ab|----------------------------15-14-----------------------------10-9----|
Eb|-12\0----------10-1010-1010-------15-10-88-88-7-8\-5-7888-8-8------10-|

Gb|-------------------------------------------------------------------|
Db|-------------------------------------------------------------------|
Ab|-------------------------15-14-----------------------------10-9----|
Eb|-12\0-0-2-3-10-1010-1010-------15-10-88-88-7-8\-5-7888-8-8------10-|

Gb|-----------------------------------------------------------------------|
Db|------14-16-17---------------------------------------------------------|
Ab|----------------------------15-14--------------------------------------|
Eb|-12\0----------10-1010-1010-------15-10-88-88-7-8\-5-7888-8-8-10-10-10-|

CHORUS
Gb|---------------------------------------------------------------------------------|
Db|---------------------------------------------------------------------------------|
Ab|---------------------------------------------------------------------------------|
Eb|-8-8-8-8-8-8-8-8-10-10-10-10-10-10-10-10-12-12-12-12-12-12-12-12-7-7-7-7-7-7-7-7-|

Gb|-----------------------------------------------------------------------------|
Db|-----------------------------------------------------------------------------|
Ab|-----------------------------------------10-10-10-10-9-9-9-9-7-7-7-7-5-5-5-5-|
Eb|-8-8-8-8-8-8-8-8-10-10-10-10-10-10-10-10-------------------------------------|

Gb|--------------------------------------|
Db|--------------------------------------|
Ab|-3-3-3-3-3-3-3-3-5-5-5-5\1717-1717-10-| Then straight back into the pre-verse type thing
Eb|--------------------------------------|

PRE-VERSE TYPE THING
Gb|----------------------------------------------------------------------------|
Db|------------14-16-17--------------------------------------------------------|
Ab|----------------------------------15-14-----------------------------10-9----|
Eb|-12-1212-12----------10-1010-1010-------15-10-88-88-7-8\-5-7888-8-8------10-|

Gb|----------------------------------------------------------------------|
Db|------14-16-17--------------------------------------------------------|
Ab|----------------------------15-14-----------------------------10-9----|
Eb|-12\0----------10-1010-1010-------15-10-88-88-7-8\-5-7888-8-8------10-|
[ Tab from: http://www.guitartabs.cc/tabs/k/killers/jenny_was_a_friend_of_mine_btab_ver_4.html ]
VERSE
Gb|----------------------------------------------------------------------|
Db|------14-16-17--------------------------------------------------------|
Ab|----------------------------15-14-----------------------------10-9----|
Eb|-12\0----------10-1010-1010-------15-10-88-88-7-8\-5-7888-8-8------10-|

Gb|----------------------------------------------------------------------|
Db|------14-16-17--------------------------------------------------------|
Ab|----------------------------15-14-----------------------------10-9----|
Eb|-12\0----------10-1010-1010-------15-10-88-88-7-8\-5-7888-8-8------10-|

Gb|-------------------------------------------------------------------|
Db|-------------------------------------------------------------------|
Ab|-------------------------15-14-----------------------------10-9----|
Eb|-12\0-0-2-3-10-1010-1010-------15-10-88-88-7-8\-5-7888-8-8------10-|

Gb|-----------------------------------------------------------------------|
Db|------14-16-17---------------------------------------------------------|
Ab|----------------------------15-14--------------------------------------|
Eb|-12\0----------10-1010-1010-------15-10-88-88-7-8\-5-7888-8-8-10-10-10-|

CHORUS
Gb|---------------------------------------------------------------------------------|
Db|---------------------------------------------------------------------------------|
Ab|---------------------------------------------------------------------------------|
Eb|-8-8-8-8-8-8-8-8-10-10-10-10-10-10-10-10-12-12-12-12-12-12-12-12-7-7-7-7-7-7-7-7-|

Gb|-----------------------------------------------------------------------------|
Db|-----------------------------------------------------------------------------|
Ab|-----------------------------------------10-10-10-10-9-9-9-9-7-7-7-7-5-5-5-5-|
Eb|-8-8-8-8-8-8-8-8-10-10-10-10-10-10-10-10-------------------------------------|

Gb|---------------------------------|
Db|---------------------------------|
Ab|-3-3-3-3-3-3-3-3-5-5-5-5-5-5-5-5-|
Eb|---------------------------------|

Gb|-----------------------------------------------------------------------------|
Db|-----------------------------------------------------------------------------|
Ab|-----------------------------------------10-10-10-10-9-9-9-9-7-7-7-7-5-5-5-5-|
Eb|-8-8-8-8-8-8-8-8-10-10-10-10-10-10-10-10-------------------------------------|

Gb|--------------------------------------|
Db|--------------------------------------|
Ab|-3-3-3-3-3-3-3-3-5-5-5-5/1717-1717-10-|
Eb|--------------------------------------|

INTERLUDE
Gb|------------------------------12~-1212~r---------------------------------------------|
Db|-----------------------------------------12~r----------------------------------------|
Ab|-------------------------------------------------------------------------------------|
Eb|-0r-----------------------0r------------------12~r-----------------------------------|

OUTRO
Gb|-----------------------------------------------------------------------------------|
Db|-17-17\------------14-16-17--------------------------------------------------------|
Ab|-----------------------------------------15-14-----------------------------10-9----|
Eb|--------12-1212-12----------10-1010-1010-------15-10-88-88-7-8\-5-7888-8-8------10-|

Gb|----------------------------------------------------------------------|
Db|------14-16-17--------------------------------------------------------|
Ab|----------------------------15-14-----------------------------10-9----|
Eb|-12\0----------10-1010-1010-------15-10-88-88-7-8\-5-7888-8-8------10-|

Gb|-------------------------------------------------------------------|
Db|-------------------------------------------------------------------|
Ab|-------------------------15-14-----------------------------10-9----|
Eb|-12\0-0-2-3-10-1010-1010-------15-10-88-88-7-8\-5-7888-8-8------10-|

Gb|---------------------------------------------------------------------------|
Db|------14-16-17-------------------------------------------------------------|
Ab|----------------------------15-14------------------------------------------|
Eb|-12\0----------10-1010-1010-------15-10-88-88-7-8\-5-7888-8-8-10-10-10-12r-|
Comments