Killers - Bling Confessions Of A King Chords & Tabs

 

Bling Confessions Of A King Chords & Tabs

Killers Chords & Tabs

Version: 1 Type: Bass Tab 0 ratings
1 star 2 stars 3 stars 4 stars 5 stars
comments

Bling Confessions Of A King Bass Tab

   
Verse:

G|---------444444\2-----------------------------------------------------| 
D|-----------------4---------55555\3----------22224455------------------| 
A|-22222222-------------------------5------------------2222222222222222-| x2
E|-------------------33333333---------00000000--------------------------|

Prechorus:

Watch it go...Bling
G|----------------------------------|
D|----------------------------------|
A|------------------------------5-4-|
E|-3333333333333333-555555555555----|

Chorus:

G|----------------------------------|
D|----------------------------------|
A|-55555555-------------------------| x1
E|---------222222223333333333333333-| 

G|----------------------------------|
D|----------------------------------|
A|----------------------------------| x3
E|-55555555222222223333333333333333-| 

Verse:

G|---------444444\2-----------------------------------------------------| 
D|-----------------4---------55555\3----------22224455------------------| 
A|-22222222-------------------------5------------------2222222222222222-| x2
E|-------------------33333333---------00000000--------------------------|
[ Tab from: http://www.guitartabs.cc/tabs/k/killers/bling_confessions_of_a_king_btab.html ]
Watch it go...(When I offer you survival)...Bling
G|----------------------------------|
D|----------------------------------|
A|------------------------------5-4-|
E|-3333333333333333-555555555555----|

Chorus:

G|----------------------------------|
D|----------------------------------|
A|-55555555-------------------------| x1
E|---------222222223333333333333333-| 

G|----------------------------------|
D|----------------------------------|
A|----------------------------------| x3
E|-55555555222222223333333333333333-| 

Ending:

G|----------------------------------|
D|----------------------------------|
A|-55555555555555555555555555555555-|
E|----------------------------------| 
                                     
G|--------------------------|
D|--------------------------|
A|---------2222-------------|
E|-33335555----222233335555-|

G|----------------------------------|
D|----------------------------------|
A|-55555555555555555555555555555555-|
E|----------------------------------| 
                                     
G|--------------------------|
D|--------------------------|
A|---------2222-------------|
E|-33335555----222233335555-|

G|----------------------------------|
D|----------------------------------|
A|-5555555555555555-----------------|
E|-----------------3333333333333333-| 

G|--------------------------|
D|--------------------------|
A|---------2222-------------|
E|-33335555----222233335555-|

Final note:

G|-----|
D|-----|
A|--5--|
E|-----|
Comments