Kill Kenada - Massachusetts Murder Medallion Chords & Tabs

 

Massachusetts Murder Medallion Chords & Tabs

Kill Kenada Chords & Tabs

Version: 1 Type: Tab 0 ratings
1 star 2 stars 3 stars 4 stars 5 stars
comments

Massachusetts Murder Medallion Tab

   
#----------------------------------PLEASE NOTE--------------------------------#
#This file is the author's own work and represents their interpretation of the#
#song. You may only use this file for private study, scholarship, or research.#
#-----------------------------------------------------------------------------#
#-- File created with Instab - http://www.pconline.com/~smcarey/instab.html --#
#-----------------------------------------------------------------------------#

Author/Artist: Kill Kenada (www.killkenada.co.uk)
Title: Massachusetts Murder Medallion
Tabber: Andrew Biles

This is my favourite song so far from Kill Kenada, although everything they've done I've loved,
can't wait for the debut album to come.  I wonder how Dan comes up with so many damn riffs
for each song though, he barely uses the same riff twice in a three minute song.
Drop D

 Intro
|------------------------------------------------------------------------|
|----12--12--9-----------------------------12--12--9---------------------|
|----x---x---x-----------------------------x---x---x---------------------|
|-11-11--11--11--11-11-11-11-11-9-9-9-9h11-11--11--11--11-11-11--9-9-9-9-|
|------------------------------------------------------------------------|
|------------------------------------------------------------------------|

|--------------------------------------------------
|--------------------------------------------------
|--9-----------------------------------------------
|--9-----------------------------------------------
|--7-----------------------------------------------
|--------------------------------------------------
 "we've got no reason, we've got no reason to lie"

|--------------------------|-----------------------
|--------------------------|-----------------------
|-----4--4-----------------|-----4--4-----------5^-
|-----x--x--6--6-6-6-------|-----x--x--6--6-6-6----
|-2h4-4--4--4--4-4-4-2-2-2-|-2h4-4--4--4--4-4-4----
|--------------------------|-----------------------
  0:40                  x3

|-------------------------
|-------------------------
|-------------------------
|-4/6--6--6-6-6-6-6\4-4-4-
|-2/4--4--4-4-4-4-4\2-2-2-
|-------------------------
  1:25

|----------------------------------------
|--------------------0-------------------
|----------------------------------------
|----------------------------------------
|-11-11----------------------------------
|-------13-12-13-14----------------------
  1:47               ^pick behind bridge

|---------------------------------------------
|---------------------------------------------
|-13-13-11h13-13-13-11h13-13-13-11h13-12-12-9-
|---------------------------------------------
|---------------------------------------------
|---------------------------------------------
 (under bass)
[ Tab from: http://www.guitartabs.cc/tabs/k/kill_kenada/massachusetts_murder_medallion_tab.html ]
|-------------|----------------------------------------------------------------
|-------------|----------------------------------------------------------------
|-6-6-6-6-7-7-|-6-6-6-6-6-6-6-6-6-6-6-6-6-6-6-6-11-11-11-11-11-11-11-11-7-7-7--
|-x-x-x-x-x-x-|----------------------------------------------------------------
|-4-4-4-4-5-5-|----------------------------------------------------------------
|-------------|----------------------------------------------------------------

-----------------------------------------------------------------------------
-----------------------------------------------------------------------------
-7-7-7-7-7-4-4-4-4-4-4-4-4-4-4-4-4-4-4-4-4-11-11-11-11-11-11-11-11-7-7-7-7-7-
-----------------------------------------------------------------------------
-----------------------------------------------------------------------------
-----------------------------------------------------------------------------

|-------------------------------------------------|
|-------------------------------------------------|
|-4-4-0-4-6-6-6-6-0-6-6/11-11-11-11-0-11-7-7-7-7/-|
|-------------------------------------------------|
|-------------------------------------------------|
|-------------------------------------------------|

 Outro
|---------------------------------------------------------7--------------------
|---------------------7-----------------------------------x--------------------
|-7-x-4-x-6---7-x-4-x-x---7-x-4-x-6---7-x-4-x-6---7-x-4-x-4---7-x-4-x-6---7-x--
|-x-x-x-x-x---x-x-x-x-x---x-x-x-x-x---x-x-x-x-x---x-x-x-x-----x-x-x-x-x---x-x--
|-5-x-2-x-4---5-x-2-x-4---5-x-2-x-4---5-x-2-x-----5-x-2-x-----5-x-2-x-4---5-x--
|------------------------------------------------------------------------------
                                             ^vibrato 

-------------------------------
-------------------------------
-4-x-6---7-x-4-x-6---7-x-4-x-6-
-x-x-x---x-x-x-x-x---x-x-x-x-x-
-2-x-4---5-x-2-x-4---5-x-2-x-4-
-------------------------------
                 ^ staccato  ^

any questions? andrewbiles@hotmail.com
___________________________
Lyrics:

we got no reason to lie...

if my fathers a colon
then my mothers a full stop stop stop,
crashing lakes into cities
raising children in shop back rooms to die...

we got no reason to lie....

its a bad day in vegas
when the pin hits the floor,
censor vital statistics
and keep watch for the black guards eyes tonite!

we got no reason to lie.

Don't look at the forms of god
Answer to the noise of god

we got no reason to lie.

Massachusetts murder medallion I'm an ice pick in your grave.
San Fransisco counterfit stallions I'm an ice pick in your grave.
Massachusetts murder medallion your the sunshine in my grave
San Fransisco counterfit stallions your the sunshine in my grave

1,2,3,4
This so simple

1,2,3,4

1,2,3,4
Re-location

1,2,3,4
Comments