Kill Hannah - Race The Dream Chords & Tabs

 

Race The Dream Chords & Tabs

Kill Hannah Chords & Tabs

Version: 1 Type: Tab

Race The Dream Tab

Kill Hannah- Race The Dream
if you find any mistakes email me please
skreft@accesstoledo.com





intro/chorus
E|--------------------------------------------------------|
B|--------------------------------------------------------| x2
G|--------------------------------------------------------|
D|-----------6---6---6--------------9-9-9-----------------|
A|---------4---4---4-----7-7--7----7-7-7----6-6~----------|
E|----------------------5-5--5-------------4-4~-----------|
 they keyboard plays and then you play that^^along w/it

E|------|
B|------|
G|------|<---bass plays while "love: my angel on silver lines" is sung 
D|------|
A|------|
E|------|

chorus: "....Only the strong survive"
E|--------------------------------------------------------|
B|--------------------------------------------------------|
G|--------------------------------------------------------|x2
D|-----------6---6---6--------------9-9-9-----------------|
A|---------4---4---4-----7-7--7----7-7-7----6-6~----------|
E|----------------------5-5--5-------------4-4~-----------|

[ Tab from: http://www.guitartabs.cc/tabs/k/kill_hannah/race_the_dream_tab.html ]
E|------|
B|------|<-bass plays when "Our doctors say..and he needs 'em just as bad"
G|------|
D|------|
A|------|
E|------|


part:"He said, 'Be my love,....they cant tear us apart!'"
E|-----------------------------------------------------------|
B|-----------------------------------------------------------|
G|-----------------------------------------------------------|
D|-----------------------------------------------------------|
A|-----7~-----9~-----11~----44444444------7~---9~----2-2-2-2-|
E|----5~-----7~-----9~-----22222222------5~---7~----0-0-0-0--|

then the last"The king and queen together
Now i know they can't tear us apart" you play... 
E|--------------------------------------------------------|
B|--------------------------------------------------------|
G|--------------------------------------------------------|
D|-----------6---6---6--------------9-9-9-----------------|
A|---------4---4---4-----7-7--7----7-7-7----6-6~----------|
E|----------------------5-5--5-------------4-4~-----------|
 slowly fades out
----------------------------------------------------------------------------
theres a few short guitar parts i couldnt figure out, i was kinda tired though