Kiko Machine - Takeshi Chords & Tabs

 

Takeshi Chords & Tabs

Kiko Machine Chords & Tabs

Version: 2 Type: Tab

Takeshi Tab

Kiko Machine
Takeshi

--Oi naka half step ako!!--
[ Tab from: http://www.guitartabs.cc/tabs/k/kiko_machine/takeshi_tab_ver_2.html ]
E|----------------------------------------------------------------------|
B|-11-10-----11-10-------------------11-10-----11-10--------------------|
G|------12--------12----------------------12--------12------------------|
D|--------10--------10--7-8-7-8-7-10--------10--------10--7-8-7-8-10----|
A|------------------------------------------------------------------8---|
E|----------------------------------------------------------------------|

E|----------------------------------------------------------------------|
B|-11-10-----11-10------------------11-10-----11-10---------------------|
G|------12--------12----------------------12--------12------------------|
D|--------10--------10-7-8-7-8-7-10--------10--------10--10-12-12s15-15-|
A|----------------------------------------------------------------------|
E|----------------------------------------------------------------------|

mermer ule gmawa nto…
claire 05-06