Kiko Machine - Boldstar Chords & Tabs

 

Boldstar Chords & Tabs

Kiko Machine Chords & Tabs

Version: 1 Type: Tab

Boldstar Tab

Boldstar
Kiko Machine

Oi naka Half step ako!!!

E|-16-----------------------------16---------------------------------|
B|----17-14-16-17-16-14-17-----------17-14-16-17-16-14-16-17-16-14---|
G|------------------------13-14--------------------------------------|
D|-------------------------------------------------------------------|
A|-------------------------------------------------------------------|
E|-------------------------------------------------------------------|
[ Tab from: http://www.guitartabs.cc/tabs/k/kiko_machine/boldstar_tab.html ]
E|-------------------------------------------------------------------|
B|------14-16-17-16-14-16-17-16-14-----17-16-14-16-17b-16-14---------|
G|---13--------------------------------------------------------------|
D|-------------------------------------------------------------------|
A|-------------------------------------------------------------------|
E|-------------------------------------------------------------------|

half step down ah!!

mermer ule gmawa nto…
claire 05-06