Kids Near Water - Post Scriptum Chords & Tabs

 

Post Scriptum Chords & Tabs

Kids Near Water Chords & Tabs

Version: 1 Type: Tab 0 ratings
1 star 2 stars 3 stars 4 stars 5 stars
comments

Post Scriptum Tab

   
-------------------------------------------------------------------------------
			     Post scriptum - Kids near water
-------------------------------------------------------------------------------

Tabbed by: Graham the guitar tutor 
Email:Park_punk@hotmail.com

Tuning:Dadgbe
Mian Riff Guitar 1 X2
e|---------------------------------------------------------------------------|
B|---------------------------------------------------------------------------|
G|55-55-44-44-55-55-44-44-5S777777-999999-77-55-55-44-44-55-55-44-44---------|
D|55-55-44-44-55-55-44-44--------------------55-55-44-44-55-55-44-44---------|
A|33-33-33-33-33-33-33-33-3S555555-777777-55-33-33-33-33-33-33-33-33---------|
D|---------------------------------------------------------------------------|
Main Riff guitar 1 con't
e|---------------------------------------------------------------------------|
B|---------------------------------------------------------------------------|
G|5S7777777-999--1111-1414---------------------------------------------------|
D|---------------------------------------------------------------------------|
A|3S5555555-777--9-9--1212---------------------------------------------------|
D|---------------------------------------------------------------------------|
Mian Riff Guitar 2 
e|---------------------------------------------------------------------------|
B|---------------------------------------------------------------------------|
G|1212-1212-11111111-1212-1212-11111111-12121212121212-111111-12121212-1414--|
D|---------------------------------------------------------------------------|
A|1010-1010-9-9-9-9--1010-1010-9-9-9-9--10101010101010-9-9-9--10101010-1212--|
D|---------------------------------------------------------------------------|

e|---------------------------------------------------------------------------|
B|---------------------------------------------------------------------------|
G|55-55-44-44-55-55-44-44-121212121212--11111111-121212121212-1414-----------|
D|---------------------------------------------------------------------------|
A|33-33-33-33-33-33-33-33-101010101010--9-9-9-9--101010101010-1212-----------|
D|---------------------------------------------------------------------------|

e|---------------------------------------------------------------------------|
B|---------------------------------------------------------------------------|
G|1414-1414-1212-1212-1414-1414-1212-1212-121212121212-11111111-12121212-1414|
D|---------------------------------------------------------------------------|
A|1212-1212-1010-1010-1212-1212-1010-1010-101010101010-9-9-9-9--10101010-1212|
D|---------------------------------------------------------------------------|
[ Tab from: http://www.guitartabs.cc/tabs/k/kids_near_water/post_scriptum_tab.html ]
e|---------------------------------------------------------------------------|
B|---------------------------------------------------------------------------|
G|55-55-44-44-55-55-44-44-121212121212-11111111-121212121212-----------------|
D|---------------------------------------------------------------------------|
A|33-33-33-33-33-33-33-33-101010101010-9-9-9-9--101010101010-----------------|
D|---------------------------------------------------------------------------|
Verse Guitar 1 
e|---------------------------------------------------------------------------|
B|---------------------------------------------------------------------------|
G|---5-4----5-4-----7-6----7-6------777-999-111111-121212-1414---------------|
D|--5-5-5--5-5-5---7-7-7--7-7-7-X3-------------------------------------------|
A|-3------3-------5------5----------555-777-9-9-9--101010-1212---------------|
D|---------------------------------------------------------------------------|
Verse Guitar 1 Con't 
e|---------------------------------------------------------------------------|
B|---------------------------------------------------------------------------|
G|11s1212-11s1212--12--77-99-111111-121212-1414------------------------------|
D|---------------------------------------------------------------------------|
A|-9s1010--9s1010--10--55-77-9-9-9--101010-1212------------------------------|
D|---------------------------------------------------------------------------|
Verse Guitar2
e|---------------------------------------------------------------------------|
B|3~--------5~-------3~-------5~---------------------------------------------|
G|5~--------7~-------5~-------7~-77-99-1111-1212-1212121212121212121212121212|
D|5~--------7~-------5~-------7~---------------------------------------------|
A|3~-pause -5~-pause-3~-pause-5~-55-77-9-9--1010-1010101010101010101010101010|
D|---------------------------------------------------------------------------|
Verse Guitar2 Con't
e|---------------------------------------------------------------------------|
B|---------------------------------------------------------------------------|
G|1111111111111111-77-99-1111-1212-14-12121212121212121212121212121212-111111|
D|---------------------------------------------------------------------------|
A|9-9-9-9-9-9-9-9--55-77-9-9--1010-12-10101010101010101010101010101010-9-9-9-|
D|---------------------------------------------------------------------------|
Verse Guitar 2 Con't
e|---------------------------------------------------------------------------|
B|---------------------------------------------------------------------------|
G|11111111-77-99-1111-1212-14------------------------------------------------|
D|---------------------------------------------------------------------------|
A|9-9-9-9--55-77-9-9--1010-12------------------------------------------------|
D|---------------------------------------------------------------------------|
Chorus Guitar 1 
e|---------------------------------------------------------------------------|
B|---------------------------------------------------------------------------|
G|55-55-44-44-55-55-44-44-777777-999999-12121212--7s99s7-7s99s7--------------|
D|55-55-44-44-55-55-44-44-777777-999999-12121212-----------------------------|
A|33-33-33-33-33-33-33-33-555555-777777-10101010--5s77s5-5s77s5--------------|
D|---------------------------------------------------------------------------|
Chorus Guitar 2 
e|---------------------------------------------------------------------------|
B|---------------------------------------------------------------------------|
G|1010-1010-1010-1010-1010-1010-1010-777777-999999-12121212--1414141414141414|
D|-----------------------------------777777-999999-12121212------------------|
A|1212-1212-1212-1212-1212-1212-1212-555555-777777-10101010--1212121212121212|
D|---------------------------------------------------------------------------|
Break Both guitars x 2
e|---------------------------------------------------------------------------|
B|---------------------------------------------------------------------------|
G|55-55-44-44-55-55-44-44----------------------------------------------------|
D|55-55-44-44-55-55-44-44----------------------------------------------------|
A|33-33-33-33-33-33-33-33----------------------------------------------------|
D|---------------------------------------------------------------------------|

Structure 
Mian Riff 
Verse 
Chorus 
Break Riff
Verse
Chorus
Outro Extend last part of the chorus
Break Riff
Comments