Kids In Glass Houses - Youngblood Let It Out Chords & Tabs

 

Youngblood Let It Out Chords & Tabs

Kids In Glass Houses Chords & Tabs

Version: 2 Type: Bass Tab

Youngblood Let It Out Bass Tab

After a couple of bars of guitar, the bass comes in but it feels a bit late so be aware 
of this
Intro:
G|----------------|----------------|----------------|----------------|
D|----------------|----------------|----------------|/777777777777777|
A|----777777777777|7777777777777777|4444444444444444|----------------|
E|----------------|----------------|----------------|----------------|

Verse:
G|----------------|----------------|----------------|----------------|
D|----------------|----------------|----------------|----------------|
A|7777777777777777|7777777777777777|4444444444444444|----------------|
E|----------------|----------------|----------------|5555555555555555|

G|----------------|----------------|----------------|----------------|
D|----------------|----------------|----------------|/777777777777777|
A|7777777777777777|7777777777777777|4444444444444444|----------------|
E|----------------|----------------|----------------|----------------|

Chorus: Again, like the intro there's a pause in the bass at the beggining
 but there is a drum fill to aid your timing. Also the root notes are
basically the same as in the verse so feel free to add your own fills,
decorations etc to add some colour to the piece. I've put some of my own
into this tab which could be used if you want to. If you want to stick to
the root note play what is played for the verse

G|----------------|----------------|----------------|----------------|
D|-------------679|-------------4--|----46----6--6--|----7----67-677-|
A|----7-777-757---|7-757-7-7-757-75|4-44--4-4--4--4-|-------7---7----| X2
E|----------------|-------7--------|---------------7|5555------------|

Post-Chorus: basically the intro but with notes on the first beat :)
G|----------------|----------------|----------------|----------------|
D|----------------|----------------|----------------|/777777777777777|
A|7777777777777777|7777777777777777|4444444444444444|----------------|
E|----------------|----------------|----------------|----------------|

[ Tab from: http://www.guitartabs.cc/tabs/k/kids_in_glass_houses/youngblood_let_it_out_btab_ver_2.html ]
Verse2 and Chorus 2: Basically just a repeat but I've put it again anyway
G|----------------|----------------|----------------|----------------|
D|----------------|----------------|----------------|----------------|
A|7777777777777777|7777777777777777|4444444444444444|----------------|
E|----------------|----------------|----------------|5555555555555555|

G|----------------|----------------|----------------|----------------|
D|----------------|----------------|----------------|/777777777777777|
A|7777777777777777|7777777777777777|4444444444444444|----------------|
E|----------------|----------------|----------------|----------------|

G|----------------|----------------|----------------|----------------|
D|-------------679|-------------4--|----46----6--6--|----7----67-677-|
A|----7-777-757---|7-757-7-7-757-75|4-44--4-4--4--4-|-------7---7----| X2
E|----------------|-------7--------|---------------7|5555------------|


Bridge: listen out for the timing of the last note in the bar
G|----------------|
D|----------------|
A|7------4--------| X4
E|----5-7---------|

Again as though starting a bit late
G|----------------|      |----------------|         |/666666666666666|
D|----------------|      |----------------|         |----------------|
A|---4444444444444| then |4444444444444444| X4 then |----------------|
E|----------------|      |----------------|         |----------------|

Then
G|----------------|----------------|----------------|----------------|
D|----------------|----------------|----------------|----------------|
A|7777777777777777|7777777777777777|4444444444444444|----------------|
E|----------------|----------------|----------------|5555555555555555|

And the final chorus. For this chorus you might want to fill it out with constant 16th 
notes (semiquavers)to make it sound more 'full'.
G|----------------|----------------|----------------|----------------|
D|-------------679|-------------4--|----46----6--6--|----7----67-677-|
A|----7-777-757---|7-757-7-7-757-75|4-44--4-4--4--4-|-------7---7----| X2
E|----------------|-------7--------|---------------7|5555------------|

Outro
G|----------------|----------------|----------------|----------------|
D|----------------|----------------|----------------|----------------|
A|7777777777777777|7777777777777777|4444444444444444|----------------|
E|----------------|----------------|----------------|555555555-------|

Let the last note ring.
A simple song for bass but a nice one none-the-less.
Please leave a comment if you think this is a good tab or if there is any corrections to 
be made, feedback is muchly appreciated.