Kid Rock - Wasting Time Chords & Tabs

 

Wasting Time Chords & Tabs

Kid Rock Chords & Tabs

Version: 5 Type: Tab 0 ratings
1 star 2 stars 3 stars 4 stars 5 stars
comments

Wasting Time Tab

Kid Rock: Wasting Time          Key:  s=slide
                                      ^=bend
By:Nick Cullen                        h=hammer on
                                      p=pull off
                                      ~=virbrato


e|--------2---0--------------------------------------2-----|
B|----------2---4(prebend)2-4-----------------------2-2----|
G|5^(slow)--------------------4s2-----2h3-------2h3--------|
D|--------------------------------0h4-----4-2h4------------|
A|---------------------------------------------------------|
E|---------------------------------------------(very fast)-|
[ Tab from: http://www.guitartabs.cc/tabs/k/kid_rock/wasting_time_tab_ver_5.html ]
e|5s7-5-6-7p6p5------------------------------9--------------|
B|------------------7~-7~-9^-(9-bend down)-7---7-9^---------|
G|--------------6-8---------------------------------9s17----|
D|----------------------------------------------------------|
A|----------------------------------------------------------|
E|----------------------------------------------------------|

e|14-------14--------------14-------------------------------|
B|---14-16----17-14-----14----17-14-------------------------|
G|------------------17^-------------16^-14-16-14------------|
D|-----------------------------------------------16~--------|
A|----------------------------------------------------------|
E|----------------------------------------------------------|
Comments