Kid Rock - Only God Knows Why Chords & Tabs

 

Only God Knows Why Chords & Tabs

Kid Rock Chords & Tabs

Version: 1 Type: Tab 0 ratings
1 star 2 stars 3 stars 4 stars 5 stars
comments

Only God Knows Why Tab

   

#----------------------------------PLEASE NOTE---------------------------------#
#This file is the author's own work and represents their interpretation of the #
#song. You may only use this file for private study, scholarship, or research. #
#------------------------------------------------------------------------------##




Only God Knows Why by Kid Rock Only God Knows Why
Written by: Matt Schafer, John Travis, and Robert Ritchie
Artist: Kid Rock
Album: Devil Without A Cause

Tuning: E A D G B E
Effects: Distortions, Acoustics, Clean Tones
Guitar: Electric 6-string
Style: Hip Hop



  Intro:
   GUITAR 1:
   +   +   +   +     +   +   +   +     +   +   +   +     +   +   +   +
e:-0---------------|-----------------|-----------------|-0-----0---------|
B:-0---------------|-4---------4-----|-2---------------|-0-----0--0------|
G:-1---------------|-4-4-4-----4-----|-2---2-4-4p2p0---|-1--1-----1------|
D:-2---------------|-4-4-4-6---4-----|-2---2-----------|-2--2-----2------|
A:-2---------------|-2-2-2-2---2-----|-0---0-----------|-2--2------------|
E:-0---------------|-----------------|-----------------|-0----------0-3~~|
   GUITAR 2:                     1/2                                 I've
e:-----------------|-----------------|---12-12---------|-----------------|
B:--------12~~~----|-----10~~-9--9^--|------10---------|-----------------|
G:-----------------|-----------------|-----------------|---9/10~~--------|
D:-----------------|-----------------|-----------------|---9/10~~--------|
A:-----------------|-----------------|-----------------|-----------------|
E:-----------------|-----------------|-----------------|-----------------|

   Verse:
                                                                      Full
   +   +   +   +     +   +   +   +     +   +   +   +     +   +   +   +
e:-0---0-----0--0--|-----------------|-----------------|-0---------------|
B:-0---0---0-0--0--|-4-------5---4---|-2---------2-2---|-0---------------|
G:-1---1---1-1--1--|-4-------4-4-4---|-2-------2-2-2-2-|-2---------------|
D:-2---2---2-2-----|-4-------4-4-4---|-2-------2-2-2---|-2---------------|
A:-2---2-----2-----|-2-------2-2-2---|-0---------0-----|-1---------------|
E:-0---0-----0-----|-----------------|-----------------|-0----0-3~~-0-2^-|
   been..            find myself..          I need to..       FULL    1/2
e:-----------------|-----------------|-----------------|------7---12-----|
B:-5---------------|-----------------|-----------------|------7^----12---|
G:-4---------------|-----------------|-----------------|--------------11^|
D:-6---------------|--4h6----7-9-----|-7---------------|-----------------|
A:-----------------|-----------------|-7---------------|-----------------|
E:-----------------|-----------------|-----------------|-----------------|



   +   +   +   +     +   +   +   +     +   +   +   +     +   +   +   +
e:-----0-----------|-----------------|-----------------|-0---------------|
B:-----0-----------|-4---4-4-4-------|-2------2--------|-0---------------|
G:-----1-----------|-4---4-4-4---4-4-|-2--2---2--------|-1---------------|
D:-----2-----------|-4---4-4-4---4-4-|-2--2---2--------|-2---------------|
A:-----2-------2---|-2-------2-------|-0--0---0--------|-2---------------|
E:-0-----------0-0-|-----------------|-----------------|-0---------------|
      Listen for the playback          Every man bleeds       And I feel..
e:-----------------|-----------------|-----------------|-----------------|
B:-----------------|-----------------|-----------------|-----------------|
G:-----------------|-----------------|-----------------|-----4h6-0-4h6p4-|
D:-----------------|---------9h11----|-9h11-7~~--------|-----------------|
A:-----------------|-----9h11----9h11|-----------------|-----------------|
E:-----------------|-----------------|-----------------|-----------------|



   +   +   +   +     +   +   +   +     +   +   +   +     +   +   +   +
e:-----------------|-----------------|-----------------|-----------------|
B:-GUITAR-1--------|-----------------|-----------------|-----------------|
G:----REPEAT-------|-----------------|-----------------|-----------------|
D:-------VERSE...--|-----------------|-----------------|-----------------|
A:-----------------|-----------------|-----------------|-----------------|
E:-----------------|-----------------|-----------------|-----------------|
   number one..              FULL      younger son..
e:--------7-12-----|-7---------------|------12---12-12-|-12--------------|
B:--------7----12--|-7-12------------|---9^----9-----9-|--9--------------|
G:-----------------|------11-11^--~~-|-----------------|-----------------|
D:-----------------|-----------------|-----------------|-----------------|
A:-----------------|-----------------|-----------------|-----------------|
E:-----------------|-----------------|-----------------|-----------------|



   +   +   +   +     +   +   +   +     +   +   +   +     +   +   +   +
e:-----------------|-----------------|-----------------|-----------------|
B:-----------------|-----------------|-----------------|-----------------|
G:-----------------|-----------------|-----------------|-----------------|
D:-----------------|-----------------|-----------------|-----------------|
A:-----------------|-----------------|-----------------|-----------------|
E:-----------------|-----------------|-----------------|-----------------|
   many pills..      ease the pain..   dollar bills...   feel the same..
e:-12--12------12--|-----------------|-----------------|-----------------|
B:--9^----9--------|-5h7~~~-14^------|-12~~~----12h14~-|---------5/7---5-|
G:-----------------|-----------------|-----------------|---------4/6---4-|
D:-----------------|-----------------|-----------------|-----------------|
A:-----------------|-----------------|-----------------|-----------------|
E:-----------------|-----------------|-----------------|-----------------|


   VERSE 3:
   +   +   +   +     +   +   +   +     +   +   +   +     +   +   +   +
e:-0-0-----0----0--|-----------------|-----------------|-0-0-------0---0-|
B:-0-0-----0--0-0--|-4-4-------4-4-4-|---2-2-3-3-3-2-2-|-0-0---0-0-0---0-|
G:-2-2---2-2--2-2--|-4-4--4-4--4-4-4-|-2-2-2-2-2-2-2-2-|-2-2---2-2-2---2-|
D:-2-2---2-2--2-2--|-4-4--4-4--4-4-4-|-2-2-2-2-2-2-2-2-|-2-2---2-2-2-2-2-|
A:-1-1---1-1----1--|-2-2--2-2--2-2-2-|-0-0-0---0-0-----|-1-1---1-1-1-1-1-|
E:-0-0-----0----0--|-----------------|-----------------|-0-0-----0-0---0-|
   knows my name..     A lot of folks  fuck with me      in a crowd
e:-----------------|-----------------|----12-----------|-----------------|
B:-5----------12---|-----------------|-9^----9^-~~~----|-12----------9h11|
G:-4-------11^--11-|-9h11~~~~~~~~----|-----------------|----12^-p9h11----|
D:-----------------|-----------------|-----------------|-----------------|
A:-----------------|-----------------|-----------------|-----------------|
E:-----------------|-----------------|-----------------|-----------------|



   +   +   +   +     +   +   +   +     +      +      +      +
e:-0-0-----0----0--|-0---0-0--0----0-|-0---------0-------0-0-0-0-|
B:-0-0---0-0----0--|-0---0-0--0--0-0-|-0---0-----0-------0-0-0-0-|
G:-2-2-2-2-2----2--|-2---2-2--2--2-2-|-2---2-----2-------2-2-2-2-|
D:-2-2-2-2-2-2--2--|-2---2-2--2--2-2-|-2---2-----2-------2-2-2-2-|
A:-1-1-1-1-1-1--1--|-1---1-1--1----1-|-1---------1-------1-1-1-1-|
E:-0-0-----0----0--|-0---0---------0-|-0---------0-------0---0---|
   guess thats the   shot like i am
e:-----------------|-----------------|-------15^-15-12-----------|
B:-----------------|-----12-12-15^---|-15-12-----------12-15^-12-|
G:-9h11-9~~~-------|-14^-------------|---------------------------|
D:-----------------|-----------------|---------------------------|
A:-----------------|-----------------|---------------------------|
E:-----------------|-----------------|---------------------------|


[ Tab from: http://www.guitartabs.cc/tabs/k/kid_rock/only_god_knows_why_tab.html ]
   +      +      +      +        +      +      +      +
e:-----------------------------|-0--0--0--0--0--0-----------|
B:-2-----2----------2---2-2-2--|-0--0--0--0--0--0-----------|
G:-2---2-3---3-2----2---2-2-2--|-2--2--2--2--2--2-----------|
D:-2---2-4---4-2----2---2-2-2--|-2--2--2--2--2--2-----------|
A:-0---0-0---0-0----0---0-0-0--|-1--1--1--1--1--1-----------|
E:-----------------------------|-0--0--0--0--0--0-----------|
   Outstretched hands and one..  Still I can't find love
e:-----------------12----------|----------------------------|
B:-12h15-12-----12----14^p12---|----------------------------|
G:----------14^-------------14-|-12---14p12h14----12----12^-|
D:-----------------------------|---14----------14----14-----|
A:-----------------------------|----------------------------|
E:-----------------------------|----------------------------|


   BRIDGE:
   +      +      +      +        +      +      +      +
e:-4--------4-----4------4-----|----------------------0----0-|
B:-5--5--5--5-----5---5--5-----|----------------------0--0-0-|
G:-6--6--6--6-----6---6--6-----|-3--------------------2--2-2-|
D:-6--6--6--6-----6---6--6-----|-4--4----4----4-------2--2-2-|
A:-4--4--4--4-----4---4--4-----|-4--4----4----4-------1----1-|
E:-----------------------------|-2--2----2----2-------0----0-|
                  And when your  walls come tumblin'
e:-----------------------------|-----------------------------|
B:---12------------------------|-----------------------------|
G:------12^--9----9-11-11p9----|-9h11-9h11-9h11-6~~~~--------|
D:-------------11-----------11-|-----------------------------|
A:-----------------------------|-----------------------------|
E:-----------------------------|-----------------------------|


                  END BRIDGE
   +      +      +      +        +      +      +      +
e:----4---4--4---------4--4----|-------------------------------|
B:-5--5---5--5------5--5--5----|---------------2---------------|
G:-6--6---6--6----6-6--6--6----|---------------2---------------|
D:-6--6---6--6----6-6--6--6----|-4------4------2---------------|
A:-4--4---4--4----4-4-----4----|-4------4------0---------------|
E:-----------------------------|-2------2----------------------|

e:-----------------------------|-------------9----12-12^--12^--|
B:-----9-----------------------|-9h12p9h12^----12--------------|
G:-----9------9h11p9-----11^---|-------------------------------|
D:--------11---------11~~------|-------------------------------|
A:-/11----11-------------------|-------------------------------|
E:-----------------------------|-------------------------------|


   SOLO:
   +      +      +      +        +      +     +    +      +      +      +     +
e:-----------------------------|------------------------|--------------------------|
B:-STRUM-FOLLOWING-CHORDS------|------------------------|--------------------------|
G:-ON-GUITAR-1:----------------|------------------------|--------------------------|
D:-----------------------------|------------------------|--------------------------|
A:-E..........................-|-B.....................-|-D........A..............-|
E:-----------------------------|------------------------|--------------------------|

e:-----12----------------------|------------------------|--------------------------|
B:-6~~----12-------------------|------------------------|-10p9---------------------|
G:-----------11-------9--------|-9h11~~--11p9-11---9^---|-----9h11-11p9------------|
D:------------------------11---|------------------------|---------------9h11-11-11-|
A:-----------------------------|------------------------|--------------------------|
E:-----------------------------|------------------------|--------------------------|



   +   +   +   +     +      +      +     +       +     +     +     +
e:-----------------|---------------------------|-------------------------|
B:-----------------|---------------------------|-------------------------|
G:-----------------|---------------------------|-------------------------|
D:-----------------|---------------------------|-------------------------|
A:-A..............-|-E........................-|-E......................-|
E:-----------------|---------------------------|-------------------------|

e:-----------------|---------------------------|-------------------------|
B:-----------------|---------------------------|-------------------------|
G:-----------------|-----11-11-13-13-13-14-13--|-13-11-13~~~--4h6--------|
D:-9h11------------|-----X---X--X--X--X--X--X--|--X--X--X--------6p4p2-2-|
A:------9h11-9-11--|-9-7-9---9-11-11-11-12-11--|-11--9-11~~~----------4--|
E:-----------------|---------------------------|-------------------------|



   +     +      +      +       +      +     +      +     +    +    +    +
e:---------------------------|-------------------------|-0------0----------|
B:---------------------------|-------------------------|-0------0----------|
G:---------------------------|-------------------------|-1------1--1-------|
D:---------------------------|-------------------------|-2------2--2-------|
A:-B........................-|-D.......A..............-|-2------2--2--7----|
E:---------------------------|-------------------------|-0------0-------11-|

e:---------------------------|-----------------------12|------------12-12--|
B:---------------------------|-------5----7------------|-12------9^-----9--|
G:---------------------------|-6p4-4-4----6----X-11^---|----11^------------|
D:-4-4-2---------------4/6-0-|-------------------------|-------------------|
A:-------4-2-4-4-2-4p2-------|-------------------------|-------------------|
E:---------------------------|-------------------------|-------------------|



   +   +   +   +     +     +     +    +      +    +    +   +
e:-----------------|-----------------------|------------------|
B:-----------------|-----------------------|------------------|
G:-(REPEAT---------|-----------------------|------------------|
D:-----BRIDGE------|-----------------------|------------------|
A:---ON-GUITAR-1)--|-----------------------|------------------|
E:-----------------|-----------------------|------------------|

e:-----------------|--------4/6-6^---------|-------------9----|
B:-9-9-------------|--------5/7-7^---------|--12-------9---12-|
G:-----------------|-11^--9-----------9----|-----11^----------|
D:-----------------|--------------------11-|------------------|
A:-----------------|-----------------------|------------------|
E:-----------------|-----------------------|------------------|


                         LAST VERSE:
   +    +    +    +      +    +    +   +       +   +   +   +     +   +   +   +
e:---------------------|---------------------|-----------------|-----------------|
B:---------------------|---------------------|-----------------|-----------------|
G:---------------------|-REPEAT-VERSE-CHORDS-|-----------------|-----------------|
D:---------------------|---------------------|-----------------|-----------------|
A:---------------------|---------------------|-----------------|-----------------|
E:---------------------|---------------------|-----------------|-----------------|
                         People dont..                They don't understand
e:---------------------|---------------------|-----------------|-----------------|
B:------12-----12------|---------------------|-----------------|-6/8-8-8-8-------|
G:---------11^----11^--|-9~~-----------------|-----------------|-----------------|
D:---------------------|---------------------|-----------------|-----------------|
A:---------------------|---------------------|-----------------|-----------------|
E:---------------------|---------------------|-----------------|-----------------|



   +    +    +   +     +   +   +   +     +   +   +   +     +   +   +   +
e:-------------------|-----------------|-----------------|-----------------|
B:-------------------|-----------------|-----------------|-----------------|
G:-------------------|-----------------|-----------------|-----------------|
D:-------------------|-----------------|-----------------|-----------------|
A:-------------------|-----------------|-----------------|-----------------|
E:-------------------|-----------------|-----------------|-----------------|
   been through..      been so long      been home        been gone for way
e:-------------------|--12-------------|-----------------|-----------------|
B:--------------11^--|-----12----------|-----------------|--------------9^-|
G:-------------------|--------11^--9~~-|-11~~------------|-----------------|
D:-------------------|-----------------|-----------------|-----------------|
A:-------------------|-----------------|-----------------|-----------------|
E:-------------------|-----------------|-----------------|-----------------|



   +   +   +   +     +   +   +   +
e:-----------------|-----------------|-|
B:-----------------|-----------------|-|
G:-----------------|-CONTINUE-PLAYInG|-|
D:-----------------|-VERSE-ChorDS-FOR|-|
A:-----------------|-GUItAR-1--------|-|
E:-----------------|-----------------|-|
   too long         Maybe I forgot...
e:--------------12-|-------------12--|-|
B:------9^-------9-|-----9p10h9--12--|-|
G:-----------------|-----------------|-|
D:-----------------|-----------------|-|
A:-----------------|-----------------|-|
E:-----------------|-----------------|-|



Comments