Kid Rock - Im Wrong But You Aint Right Chords & Tabs

 

Im Wrong But You Aint Right Chords & Tabs

Kid Rock Chords & Tabs

Version: 1 Type: Tab 0 ratings
1 star 2 stars 3 stars 4 stars 5 stars
comments

Im Wrong But You Aint Right Tab


Song-Im wrong but you aint right
Artist-Kid Rock
Tabber-Funk Traveler
Album-COCKY
Trakk#-6
[ Tab from: http://www.guitartabs.cc/tabs/k/kid_rock/im_wrong_but_you_aint_right_tab.html ]
          MAIN RIFF
e|--------------------------------|
b|--------------------------------|
g|----------------------7---------|
d|-2-2--2-3-2-2-2--2-2--7---------|
a|-2-2--2-3-2-2-2--2-2--5---------|
E|-0-0--0-1-0-0-0--0-0------------|


FOLK LOVE      

       |------|
      /--------\
     /          \
    /            |
    ||
    ||    -------|
    ||    -------|     NATION   
    ||          /
    \          /
     \--------/
Comments