Kid Rock - Devil Without A Cause Chords & Tabs

 

Devil Without A Cause Chords & Tabs

Kid Rock Chords & Tabs

Version: 1 Type: Tab 0 ratings
1 star 2 stars 3 stars 4 stars 5 stars
comments

Devil Without A Cause Tab

Kid Rock
Devil Without A Cause
Tabbed By:mjwk_1986@yahoo.com

Riff 1
E----------------
B-------------2b-
G-2h4-2h4-2h4----
D----------------
A----------------
E----------------
[ Tab from: http://www.guitartabs.cc/tabs/k/kid_rock/devil_without_a_cause_tab.html ]
Riff 2- part played right before Riff 3
E------------------------------
B------------------------------
G------------------------------
D------------------------------
A--2-4-4-4-2-4-4-4-2-4-4-4-2-7-
E--0-2-2-2-0-2-2-2-0-2-2-2-0-5-(with destortion)

Riff 3
E------------------
B------------------
G------------------
D------------------
A-2-4--2-4--2-4--5-
E-0-2--0-2--0-2--7-(with destortion)
Comments