Kid Rock - Cowboy Chords & Tabs

 

Cowboy Chords & Tabs

Kid Rock Chords & Tabs

Version: 3 Type: Tab 0 ratings
1 star 2 stars 3 stars 4 stars 5 stars
comments

Cowboy Tab

S1: This is a realy great song. I know this version of this song is
right.

Standard tuning., Intro - Guitar 1 - Play 3 times
---------------------------------------
---------------------------------------
---------------------------------------
-X-X-X-X-4/6-X-6-X-6-X-X-X-X-X---------
-X-X-X-X-4/6-X-6-X-6-X-X-X-X-X---------
-X-X-X-X-2/4-X-4-X-4-X-X-X-X-X---------

Guitar 2
----------------------------
---0-2----------------------
-1--------------------------
----------------------------
----------------------------
----------------------------

Verse Guitar 1 starts and guitar 2 comes in on the 9th time.
----------------------------------------------------------------------
----------------------------------------------------------------------
-----------------------------6----------------------------------------
-----6-------------------4/6--(repeat 8 times)-----6------------------
-4/6---(repeat-16-times)-2/4-------------------4/6---(repeat 8 times)-
-2/4-------------------------------------------2/4--------------------
Part 1                  Part 2                Part 3
[ Tab from: http://www.guitartabs.cc/tabs/k/kid_rock/cowboy_tab_ver_3.html ]
Chorus - Both guitars
---------------------------------------
---------------------------------------
---------------------------------------
---------------------------------------
-4/6-X-6-X-6-X-6-X-6-------------------
-2/4-X-4-X-4-X-4-X-4--(repeat 8 times)-

Guitar 2
-----2-------------
---4---------------
-1-----------------
-------------------
-------------------
-------------------

verse - but skip the last part

chorus 

interlude

bridge
---------------------------------------------------
---------------------------------------------------
---------------------------------------------------
-----------------4---------------------------------
-4/6-X-X-6-X-X-6-2--Repet as many times as needed)-
-2/4-X-X-4-X-X-4-----------------------------------

second part of verse but strumed

chorus

the solo is just moving around on the Penatonic scale an octive higher

Penatonic scale
---------------------3-6-
-----------------3-6-----
-------------3-5---------
---------3-5-------------
-----3-5-----------------
-3-6---------------------

That's the whole song.


Comments