Kid Rock - Cowboy Chords & Tabs

 

Cowboy Chords & Tabs

Kid Rock Chords & Tabs

Version: 2 Type: Tab 2 ratings
1 star 2 stars 3 stars 4 stars 5 stars
comments

Cowboy Tab

Band: Kid Rock
Song: Cowboy
TAbbbed BY: Josh W (josh23az@hotmail.com)
I tabbed this off his peformance on Jay Leno, and watching the guitarists, 
and listening to it over and over. please help me with corrections. 
Intro: use whammy bar
e---------------------------------------------- 
B----------------------------------------------                    8
G---6-6-X-X-6-6-X-5--6-6-X-X-6-6-X----6-6-X-X--Repeat:  then:  X-X-8---
D---7-7-X-X-7-7-X-5--7-7-X-X-7-7-X-5--7-7-X-X--                X-X-7---
A---7-7-X-X-7-7-X-5--7-7-X-X-7-7-X-5--7-7-X-X--                X-X------
E---5-5-X-X-5-5-X----5-5-X-X-5-5-X-5--5-5-X-X--                X-X------
 
Verse:
e-----------------------------------------------------------------
B-----------------------------------------------------------------
G--------4--------3------------------4--------------3---------
D-----3--------1-----------------3--------------1-----1-------
A--4--------3----------------4-------------3------------------
E----------------------------------------------------------------
 
Then(bridge): Use Whammy Bar
e--------------------------------
B-------------------------------
G--------4----4----4----4-----
D-----4----4-----4----4-------
A--3-----------------------------
E--------------------------------
Then back to verse: and then Chorus is the same as intro
[ Tab from: http://www.guitartabs.cc/tabs/k/kid_rock/cowboy_tab_ver_2.html ]
Comments