Kid Rock - Bawitdaba Chords & Tabs

 

Bawitdaba Chords & Tabs

Kid Rock Chords & Tabs

Version: 7 Type: Tab 0 ratings
1 star 2 stars 3 stars 4 stars 5 stars
comments

Bawitdaba Tab

   
NOT 100% CORRECT

INTRO (2 TIMES)
E|-12-12-12-12-|               |---------|
B|--X--X--X--X-|               |-0-0-0-0-| 
G|--9--9--9--9-| <- 5 TIMES    |---------| <- 5 TIMES
D|-------------|  THEN THIS -> |---------|
A|-------------|               |---------|
E|-------------|               |---------|

PART A (4 TIMES)
E|-------------------------------------------|
B|-------------------------------------------|
G|-------------------------------------------|
D|-2-2-2-2-5--2-2-2-2-5--2-2-2-2-5--3-3-3-3--| 
A|-2-2-2-2-5--2-2-2-2-5--2-2-2-2-5--3-3-3-3--|
E|-0-0-0-0-3--0-0-0-0-3--0-0-0-0-3--1-1-1-1--|

PART B
E|--------------------------------------------------------|
B|--------------------------------------------------------|
G|--------------------------------------------------------|
D|--------------------------------------------------------| 
A|--------------------------------------------------------|
E|-0--0--0--0-10-12--0--0--0--0-3-5-3-5--0--0--0--0-10-12-|

PART C1 (TWICE)
E|----------------------------------------|
B|----------------------------------------|
G|---9-9\7-7-7\12-12-12\15-15-15-15\16-16-| GUITAR 1
D|----------------------------------------|               
A|---7-7\5-5-5\10-10-10\13-13-13-13\14-16-|            
E|-0--------------------------------------|                
   BOTH GUITARS AT THE SAME TIME                                
E|--------------------------------------------------------|   
B|--------------------------------------------------------| 
G|--------------------------------------------------------| GUITAR 2
D|--------------------------------------------------------| 
A|--------------------------------------------------------|
E|-0--0--0--0-10-12--0--0--0--0-3-5-3-5--0--0--0--0-10-12-|
  THEN GUITAR 1 OR 2
E|--------------------------|
B|--------------------------|
G|--------------------------|
D|--------------------------|
A|--------------------------|
E|-0-12-10-7-3-5-3-5-7-6^-0-|
[ Tab from: http://www.guitartabs.cc/tabs/k/kid_rock/bawitdaba_tab_ver_7.html ]
PART C2
E|----------------------------------------|
B|----------------------------------------|
G|---9-9\7-7-7\12-12-12\15-15-15-15\16-16-| GUITAR 1
D|----------------------------------------|               
A|---7-7\5-5-5\10-10-10\13-13-13-13\14-16-|            
E|-0--------------------------------------|                
   BOTH GUITARS AT THE SAME TIME                                
E|--------------------------------------------------------|   
B|--------------------------------------------------------| 
G|--------------------------------------------------------| GUITAR 2
D|--------------------------------------------------------| 
A|--------------------------------------------------------|
E|-0--0--0--0-10-12--0--0--0--0-3-5-3-5--0--0--0--0-10-12-|

PART A (4 TIMES)
E|-------------------------------------------|
B|-------------------------------------------|
G|-------------------------------------------|
D|-2-2-2-2-5--2-2-2-2-5--2-2-2-2-5--3-3-3-3--| 
A|-2-2-2-2-5--2-2-2-2-5--2-2-2-2-5--3-3-3-3--|
E|-0-0-0-0-3--0-0-0-0-3--0-0-0-0-3--1-1-1-1--|

PART C2 (TWICE)
E|----------------------------------------|
B|----------------------------------------|
G|---9-9\7-7-7\12-12-12\15-15-15-15\16-16-| GUITAR 1
D|----------------------------------------|               
A|---7-7\5-5-5\10-10-10\13-13-13-13\14-16-|            
E|-0--------------------------------------|                
   BOTH GUITARS AT THE SAME TIME                                
E|--------------------------------------------------------|   
B|--------------------------------------------------------| 
G|--------------------------------------------------------| GUITAR 2
D|--------------------------------------------------------| 
A|--------------------------------------------------------|
E|-0--0--0--0-10-12--0--0--0--0-3-5-3-5--0--0--0--0-10-12-|

PART D (8 TIMES)(FIRST 4 TIMES WITH 1 GUITAR)
E|--------------------|
B|--------------------|
G|--------------------|
D|-2-2-2-2-2-2-2-2----|
A|-2-2-2-2-2-2-2-2----|
E|-0-0-0-0-0-0-0-0-3^-|

PART E (A LOT)
E|-----------------------------------------------|
B|-----------------------------------------------|
G|-----------------------------------------------|
D|-2-2-2-2-2-2-2-2-2-2-2-2-2-2-2-2-2-2-2-2-2-2-2-|
A|-2-2-2-2-2-2-2-2-2-2-2-2-2-2-2-2-2-2-2-2-2-2-2-|
E|-0-0-0-0-0-0-0-0-0-0-0-0-0-0-0-0-0-0-0-0-0-0-0-|

PART A (4 TIMES)
E|-------------------------------------------|
B|-------------------------------------------|
G|-------------------------------------------|
D|-2-2-2-2-5--2-2-2-2-5--2-2-2-2-5--3-3-3-3--| 
A|-2-2-2-2-5--2-2-2-2-5--2-2-2-2-5--3-3-3-3--|
E|-0-0-0-0-3--0-0-0-0-3--0-0-0-0-3--1-1-1-1--|

ENDING
E|-------------|
B|-------------|
G|-------------|
D|-3-3-3-3-3-2-|
A|-3-3-3-3-3-2-|
E|-1-1-1-1-1-0-|

ORDER:INTRO 
      PT A
      PT B
      PT C1
      PTC2
      PT A 
      PT C2
      PT D
      PT E
      PT A
      ENDING
Comments