Kid Rock - Bawitdaba Chords & Tabs

 

Bawitdaba Chords & Tabs

Kid Rock Chords & Tabs

Version: 6 Type: Tab 0 ratings
1 star 2 stars 3 stars 4 stars 5 stars
comments

Bawitdaba Tab

   
Author/Artist: Kid Rock
Title: Bawitabaw
Album: Devil Without A Cause
Transcribed by: Rob
Email: Korncrypt@hotmail.com

Tuning:  (low to high) Eb Ab Db Gb Bb Eb

Intro:
--14--
---x-- trem pick that
--11--
------
------
------
     
--------------||-----||-------------
--------------||-----||-------------
--------------||-----||-------------
-----------5--||-3x--||--3-3-3-3----
--2-2-2-2--5--||-----||--3-3-3-3----
--0-0-0-0--3--||-----||--1-1-1-1----
 pm......

--------------------|---------|--13-13-13--16-/-
--------------------|---------|---x--x--x---x---
--------------------|---------|--10-10-10--13-/-slides up not sure where
--------------------|---------|-----------------
--2-2-2-2-2-2-2-2-2-|-2-------|-----------------
--0-0-0-0-0-0-0-0-0-|-0h3p0h3-|-----------------
                         ??                     
[ Tab from: http://www.guitartabs.cc/tabs/k/kid_rock/bawitdaba_tab_ver_6.html ]
-------------------------|---------------------|
-------------------------|---------------------|
-10p8--------------------|---------------------|
------10-10-8-8----------|---3p1-3-------------|
----------------10-8-6-8-|---------3p1---------|
-------------------------|-------------3-2-1-3-|
  not sure about these parts, but they are close 

---------------------------------|--15---sometimes----12--
---------------------------------|---x------its--------x--
---------------------------------|--12-------this------9--
---------------------------------|------------------------
--2-2--2-2--2-2--2-----2-2-222-2-|------------------------
--0-0--0-0--0-0--0--3--0-0-000-0-|------------------------

---------|-----------
---------|-----------
---------|-----------
---------|-3-3-3-3-2-
------22-|-3-3-3-3-2-
--3p0-00-|-1-1-1-1-0-
      pm

Fresh Tabs 
http://freshtabs.hypermart.net

NOTE: If you got this tab from other pages,kindly report to freshtabs@yahoo.com
Comments