Kid Rock - Bawitdaba Chords & Tabs

 

Kid Rock Chords & Tabs

Version: 1 Type: Tab 0 ratings
1 star 2 stars 3 stars 4 stars 5 stars
comments

Bawitdaba Tab

Bitwadaba - Kid Rock
--------------------

Transcribed By Kenny Luong (kluong@accessv.com)

Intro
/////

gtr 1

E|--(0)--|
B|-------|  ** Feedback fade in with knob
G|-------|
D|-------|
A|-------|
E|-------|

gtr 2

E|-------|
B|-------|
G|-------|
D|-------|
A|--/10--|
E|-------|

gtr 1

E|-------|
B|-------|
G|--tr9--| **tremolo pick this E note
D|-------|
A|-------|
E|-------|

gtr 2

E|--------|
B|--------| 
G|--------| **tremolo pick this G note
D|--------|
A|--tr10--|
E|--------|

Chorus
//////

Gtr 1 + 2

E|---------------------------------------------|
B|---------------------------------------------|
G|---------------------------------------------|
D|---------------------------------------------|
A|----------5---------5---------5-----3-3-3-3--|
E|--0-0-0-0-3-0-0-0-0-3-0-0-0-0-3-0-0-1-1-1-1--|
pm  * * * *   * * * *   * * * *   * * * * * *  

Verse
/////

gtr 1
[ Tab from: http://www.guitartabs.cc/tabs/k/kid_rock/bawitdaba_tab.html ]
E|------------------------------------------|
B|------------------------------------------|
G|------------------------------------------|
D|----------0h2------------------------0h2--|
A|--2-----------2---------------2-----------|
E|--0-----------0------3h5-3h5--0-----------|

gtr 2

E|--------------------------------------|
B|--------------------------------------|
G|-----9---7/9-1212121212/151515151515--|
D|--------------------------------------|
A|-----7---5/7-1010101010/131313131313--|
E|--------------------------------------|

Fill ins:

E|----------------------------------|
B|----------------------------------|
G|--/9-7----------------------------|
D|--------9-7------9----9-8-9-------|
A|-------------10----10-------10-7--|
E|----------------------------------|

E|------------------------------|
B|------------------------------|
G|------------------------------|
D|--0h2p0-----------------------|
A|--------2p0----0--h1p0--------|
E|-------------3----------3--0--|

Break Down
//////////

E|----------------------------------|
B|----------------------------------|
G|----------------------------------|
D|----------------------------------|
A|--22-2-----2--2--------22-2------2--|
E|--00-0-0-0-0--0-0-^3--00-0-0-0-0--|


Comments