Kid Rock - Abortion Chords & Tabs

 

Abortion Chords & Tabs

Kid Rock Chords & Tabs

Version: 2 Type: Tab 0 ratings
1 star 2 stars 3 stars 4 stars 5 stars
comments

Abortion Tab

Kid Rock, Abortion.
Tabbed by stefan,aeroplane@go2.pl.
  
ABORTION

Intro:
-|--------------------------------------------------------------------------------------------|-
-|--------------------------------------------------------------------------------------------|-
-|-7\0--7-10-10h12b13-12h13p10\7-7h10-12-10-7-10-7h10-12b13-12b13-11r10\9-9-9h10p9-5-5/7-\\\0-|-
-|--------------------------------------------------------------------------------------------|-
-|--------------------------------------------------------------------------------------------|-
-|--------------------------------------------------------------------------------------------|-

Wstawek:
-|--------------------------------------------------------------------------------------------|-
-|--------------------------------------------------------------------------------------------|-
-|-10-10p9-10p9-9-7\0-------------------------------------------------------------------------|-
-|--------------------------------------------------------------------------------------------|-
-|--------------------------------------------------------------------------------------------|-
-|--------------------------------------------------------------------------------------------|-
[ Tab from: http://www.guitartabs.cc/tabs/k/kid_rock/abortion_tab_ver_2.html ]
Środek:
-|----------------------------------------------------------------------------------------------|-
-|----------------------------------------------------------------------------------------------|-
-|-12b13-12b13-12b13-12b13--10b11-7-7-10-10h12-12-12b13-10-13p12-10-12--12/13-12-10-12/13-10--7-|-
-|----------------------------------------------------------------------------------------------|-
-|----------------------------------------------------------------------------------------------|-
-|----------------------------------------------------------------------------------------------|-

-|-------------13----13-15-16b17-15-13--------------------------------------------------------|-
-|-13-15-13h15----15-------------------15-13--------------------------------------------------|-
-|-------------------------------------------13h15p13\10-10-12/14\12-11b13-9-9h10p9-5/7\\\----|-
-|--------------------------------------------------------------------------------------------|-
-|--------------------------------------------------------------------------------------------|-
-|--------------------------------------------------------------------------------------------|-

Wstawek2:
-|------13-15h16p15~--------------------------------------------------------------------------|-
-|-13-15--------------------------------------------------------------------------------------|-
-|--------------------------------------------------------------------------------------------|-
-|-----------------------3---3--555\\---------------------------------------------------------|-
-|-------------------3\5---5------------------------------------------------------------------|-
-|--------------------------------------------------------------------------------------------|-

End:
-|------------------------------------------12/13-13-13-13p12-12\10\8-8/10----}x2-------------|-
-|--------------------------------------------------------------------------------------------|-
-|--9\10-10-10-10p9-9\7\5-5/7-----}x2---------------------------------------------------------|-
-|--------------------------------------------------------------------------------------------|-
-|--------------------------------------------------------------------------------------------|-
-|--------------------------------------------------------------------------------------------|-

:: Ultimate Guitar Archive :: 
http://www.ultimate-guitar.com 



Comments