Kid Dynamite - Cheap Shot Youth Anthem Chords & Tabs

 

Cheap Shot Youth Anthem Chords & Tabs

Kid Dynamite Chords & Tabs

Version: 1 Type: Bass Tab 0 ratings
1 star 2 stars 3 stars 4 stars 5 stars
comments

Cheap Shot Youth Anthem Bass Tab

-------------------------------------------------------------------------------
			     Cheap Shot Youth Anthem - Kid Dyanmite
-------------------------------------------------------------------------------



tabbed by: ashley s.
bubble_ash_punk@hotmail.com
aim sn: eyeMpunk          

this is a really good song.... then agin all kd songs are good. have fun!!



* dont know how many times to play

G|------------------|
D|------------------| play 3 times
A|--5-5-5-----------|
E|--------5-5-5-----|

G|-----------------|
D|-----------------|  play 3 times
A|-----------------|
E|---3-3-3---------|

G|------------------------------------------|
D|------------------------------------------|
A|------------------------------------------|
E|---5-5-5---7-7-7-7--10-10-10--5-5-5-5-----|

G|-------------------------------|
D|-------------------------------|
A|------------7-7-7--10----------|
E|---5-5-5----------------5------|

G|------------------------------------------|
D|------------------------------------------|
A|------------------------------------------|
E|---5-5-5---7-7-7-7--10-10-10--5-5-5-5-----|

G|-------------------------------|
D|-------------------------------|
A|------------7-7-7--10----------|
E|---5-5-5----------------5------|

G|---------|
D|---------|
A|---------|
E|---3*----|
[ Tab from: http://www.guitartabs.cc/tabs/k/kid_dynamite/cheap_shot_youth_anthem_btab.html ]
G|------------------|
D|------------------| play 3 times
A|--5-5-5-----------|
E|--------5-5-5-----|

G|-----------------|
D|-----------------|  play 3 times
A|-----------------|
E|---3-3-3---------|

G|------------------------------------------|
D|------------------------------------------|
A|------------------------------------------|
E|---5-5-5---7-7-7-7--10-10-10--5-5-5-5-----|

G|-------------------------------|
D|-------------------------------|
A|------------7-7-7--10----------|
E|---5-5-5----------------5------|

G|------------------------------------------|
D|------------------------------------------|
A|------------------------------------------|
E|---5-5-5---7-7-7-7--10-10-10--5-5-5-5-----|

G|-------------------------------|
D|-------------------------------|
A|------------7-7-7--10----------|
E|---5-5-5----------------5------|

G|---------|
D|---------|
A|---------|
E|---3*----|



~BASS SOLO THINGY~

G|------------------------------|
D|------------------------------| play that till the end of the song... 
A|------10*---------------------| even when the guitars come in
E|--10*-------5*--3*--10*-------|



if u have ne kd tabs send them in.... it might a be a lil worng but i tried so.. 
if it is email me
~ash
===============================================================================

Comments