Kid Courageous - Use Me Chords & Tabs

 

Use Me Chords & Tabs

Kid Courageous Chords & Tabs

Version: 1 Type: Tab

Use Me Tab

   
for all kid courageous fans


|--------------------------------------------------|
|--------------------------------------------------|
|--------------------------------------------------|
|--33--55--77--55----------------------------------|    4x
|--------------------------------------------------|
|--------------------------------------------------|

|--------------------------------------------------|
|--------------------------------------------------|
|--------------------------------------------------|
|--55---55---55---55-------------------------------|    3x
|--------------------------------------------------|
|--------------------------------------------------|

|--------------------------------------------------|
|--------------------------------------------------|
|--------------------------------------------------|
|--33--55--77--------------------------------------|
|--------------------------------------------------|
|--------------------------------------------------|

     D        A          D      E
|--2222-------------2222---------------------------|
|--3333---2222----3333-----------------------------|
|--2222---2222----2222-----------------------------|
|-----------2222------------2222-------------------|    4x
|-----------------------------2222-----------------|
|--------------------------------------------------|

|--------------------------------------------------|
|--------------------------------------------------|
|--------------------------------------------------|
|--33--55--77--55----------------------------------|
|--------------------------------------------------|
|--------------------------------------------------|

|--------------------------------------------------|
|--------------------------------------------------|
|--------------------------------------------------|
|--------------------------------------------------|
|--44-33-44-5555-----------------------------------|
|--------------------------------------------------|
[ Tab from: http://www.guitartabs.cc/tabs/k/kid_courageous/use_me_tab.html ]
     D        A          D      E
|--2222-------------2222---------------------------|
|--3333---2222----3333-----------------------------|
|--2222---2222----2222-----------------------------|
|-----------2222------------2222-------------------|    4x
|-----------------------------2222-----------------|
|--------------------------------------------------|

|------------------------------------------------------|
|------------------------------------------------------|
|--343----343--3---------------------------------------|
|------------------------------------------------------|    4x
|------------------------------------------------------|
|------------------------------------------------------|

|--------------------------------------------------|
|--------------------------------------------------|
|--------------------------------------------------|
|--33--55--77--55----------------------------------|    2x
|--------------------------------------------------|
|--------------------------------------------------|

|--------------------------------------------------|
|--------------------------------------------------|
|--7-8-7-8-7~--------------------------------------|
|--------------------------------------------------|
|--------------------------------------------------|
|--------------------------------------------------|

|--------------------------------------------------|
|--------------7~----------------------------------|
|--7-8-7-8-9---------------------------------------|
|--------------------------------------------------|
|--------------------------------------------------|
|--------------------------------------------------|

|--------------------------------------------------|
|---------------------7~---------------------------|
|----8-7-8-7-6-5-4---------------------------------|
|--------------------------------------------------|
|--------------------------------------------------|
|--------------------------------------------------|

     D        A          D      E
|--2222-------------2222---------------------------|
|--3333---2222----3333-----------------------------|
|--2222---2222----2222-----------------------------|
|-----------2222------------2222-------------------|    4x
|-----------------------------2222-----------------|
|--------------------------------------------------|

its my first tab so any ideas
Simoneisahottie@yahoo.com.au

kidcourageous.com.au