Kgb - Fortune And Fame Chords & Tabs

 

Fortune And Fame Chords & Tabs

Kgb Chords & Tabs

Version: 3 Type: Tab 0 ratings
1 star 2 stars 3 stars 4 stars 5 stars
comments

Fortune And Fame Tab

The K.G.B. - Fortune and Fame
Tabbed By: Simon Ryder
EMail: simon_ryder_uk@hotamil.com

This is a great scar song, which you may recognise from the 
soundtrack of Road Trip. Its just brilliant... no other words for it!

Standard Tuning

MAIN RIFF

e |----------------------------------
b |----------------------------------
g |----------------------------------
d |------0h1-2-2---------2h3-4---4---
a |--2-2---------2h3-4-4-----------1-
e |----------------------------2-----


VERSE RIFF

e |----------------------------
b |----------------------------
g |---------------------4-3----      Comes in after about 8 bars
d |----0h1-2----------4-----4--      of the bass riff on its own.
a |--2--------2-----4----------
e |--------------------------2-


PRECHORUS (palm muted)
                 ooooooooohhhhhhhooooooo, ooooooooooohhhhhhhoooo,    
e |---------------------------------------------------------------------
b |---------------------------------------------------------------------
g |--4-4-4-4-4-4-4-4--3-3-3-3-3-3-3-3--4-4-4-4-4-4-4-4--3-3-3-3-3-3-3-3-
d |--4-4-4-4-4-4-4-4--3-3-3-3-3-3-3-3--4-4-4-4-4-4-4-4--3-3-3-3-3-3-3-3-
a |--2-2-2-2-2-2-2-2--1-1-1-1-1-1-1-1--2-2-2-2-2-2-2-2--1-1-1-1-1-1-1-1-
[ Tab from: http://www.guitartabs.cc/tabs/k/kgb/fortune_and_fame_tab_ver_3.html ]
e |---------------------------------------------------------------------
e |---------------------------------------------------------------------
b |---------------------------------------------------------------------
g |--2-2-2-2-2-2-2-2-2-2-2-2-2-2-2-2------------------------------------
d |--2-2-2-2-2-2-2-2-2-2-2-2-2-2-2-2--6-6-6-6-6-6-6-6--4-4-4-4-4-4-4-4--
a |--0-0-0-0-0-0-0-0-0-0-0-0-0-0-0-0--6-6-6-6-6-6-6-6--4-4-4-4-4-4-4-4--
e |-----------------------------------4-4-4-4-4-4-4-4--2-2-2-2-2-2-2-2--


CHORUS (not strummed, sort of staccato up strokes)
             Everyone I know wants to be a star....
e |------------------------
b |---------5---------7----
g |----4----4----6----6----     Chords strummed twice towards
d |----4----2----6----4----     the end of the chorus.
a |----2---------4---------
e |------------------------


STRUCTURE

MAIN RIFF
VERSE RIFF      (bass only at first, then guitar riff comes in)
PRECHORUS
CHORUS
VERSE RIFF
PRECHORUS
CHORUS  +  MAIN RIFF
PRECHORUS
CHORUS          (chords picked not strummed)
CHORUS          (base only, then everything comes in)

Listen to the song for the structure in more detail, 
its quite hard to explain. Also there are various 
little tweaky bits which i haven't bothered to tab, 
particularly towards the end of the prechorus. But 
if you cant work them out for yourself, then the song
is probably too hard for you anyway!

Any Hints, Questions, Corrections etc, free porno, aggressive 
hate mail ... all welcome to: simon_ryder_uk@hotmail.com ... Thanx
Comments