Kevin Denney - Thats Just Jesse Chords & Tabs

 

Thats Just Jesse Chords & Tabs

Kevin Denney Chords & Tabs

Version: 1 Type: Tab 0 ratings
1 star 2 stars 3 stars 4 stars 5 stars
comments

Thats Just Jesse Tab

Repeat intro 2 times
  intro: 
  ------------------------------------------------------
  ----6--------5-----------3-----------5----------------
  -------5-----------5-----------5-----------5----------
  ----------3-----------3-----------3-----------3-------
  ------------------------------------------------------
  ------------------------------------------------------
 Then it is played like this

  ------------------------------------------------------
  ----6--------5-----------3-----------5----------------
  -------5-----------5-----------5-----------5-----5----
  ----------3-----------3-----------3-----------3-------
  ------------------------------------------------------
  ------------------------------------------------------ 
 If you want the chords just get the song!
  lyrics:
[ Tab from: http://www.guitartabs.cc/tabs/k/kevin_denney/thats_just_jesse_tab.html ]
 sometimes in the mornin, my coffee gets ice cold
 an I'll burn up three cigarettes
 before I have my first smoke
 missed my exit on the way to work
 every now and then
 always blamed it on the traffic
 when they asked me where I'd been
 and in a crowded elevator, I start hummin that ole song
 there's no way of knowin
 when that urge will come along
 I've been stuck in some meetin
 look down at my legal pad
 I see hearts, and flowers, and butterflies
 and I can't help but laugh

  Chorus:
 
 thats just a dirt road, summer 89
 thats just a back seat, and some musky dime wine
 thats just auburn hair
 brushin, cross my cheek
 and those kiss me green eyes
 smilin back at me
 thats just my mind, jumpin fences once again
 but I'll be fine, once I get roped back in
 I know sometimes, I may act a little crazy
 but thats just jesse


  Verse 2:

 and sometimes in the evenin
 I hear bare feet in the hall
 and I see your slender siloette,dance across the wall
 then I catch the scent of jasmine
 purfume in the wind
 and I know its her sweet memory
 comin back again

 (chorus)
Comments