Kent - P Nra Hll Chords & Tabs

 

P Nra Hll Chords & Tabs

Kent Chords & Tabs

Version: 1 Type: Tab 0 ratings
1 star 2 stars 3 stars 4 stars 5 stars
comments

P Nra Hll Tab

Intro:

Eb|----------------|----------------|----------------|----------------|
Bb|---------8------|---------8------|---------8------|---------8------|
Gb|-----0-------0--|-----0-------0--|-----0-------0--|-----0-------0--|
Db|-------9---9----|-------9---9----|-------9---9----|-------9---9----|
Ab|--10------------|--10------------|--10------------|--10------------|
Eb|----------------|----------------|----------------|----------------|



Vers:

Eb|----------------|----------------|---------------|---------------|
Bb|---------8------|---------8------|--------8------|--------8------|
Gb|-----0-------0--|-----0-------0--|----0-------0--|----0-------0--|
Db|-------9---9----|-------9---9----|------9---9----|------9---9----|
Ab|--10------------|--10------------|---------------|---------------|
Eb|----------------|----------------|--0------------|--0------------|


Eb|-----------------|-----------------|-------------------|
Bb|---------0-------|---------0-------|-------------------|
Gb|----9---------9--|----9---------9--|----------0--------|
Db|------10---10----|------10---10----|-----0----------0--|
Ab|--0--------------|--0--------------|-------10---10-----|
Eb|-----------------|-----------------|--10---------------|


Eb|------------------|------------------|------------------|------------------|
Bb|------------------|------------------|------------------|------------------|
Gb|---------0--------|---------0--------|---------0--------|---------0--------|
Db|----0----------0--|----0----------0--|----0----------0--|----0----------0--|
Ab|------10---10-----|------10---10-----|------10---10-----|------10---10-----|
Eb|--8---------------|--8---------------|--8---------------|--8---------------|


Eb|----------------|----------------|---------------|---------------|
Bb|---------8------|---------8------|--------8------|--------8------|
Gb|-----0-------0--|-----0-------0--|----0-------0--|----0-------0--|
Db|-------9---9----|-------9---9----|------9---9----|------9---9----|
Ab|--10------------|--10------------|---------------|---------------|
Eb|----------------|----------------|--0------------|--0------------|


Eb|-----------------|-----------------|-------------------|
Bb|---------0-------|---------0-------|-------------------|
Gb|----9---------9--|----9---------9--|----------0--------|
Db|------10---10----|------10---10----|-----0----------0--|
Ab|--0--------------|--0--------------|-------10---10-----|
Eb|-----------------|-----------------|--10---------------|


Eb|-----------------|-----------------|-----------------|-----------------|
Bb|---------0-------|---------0-------|---------0-------|---------0-------|
Gb|----9---------9--|----9---------9--|----9---------9--|----9---------9--|
Db|------10---10----|------10---10----|------10---10----|------10---10----|
Ab|--0--------------|--0--------------|--0--------------|--0--------------|
Eb|-----------------|-----------------|-----------------|-----------------|



Refräng:
[ Tab from: http://www.guitartabs.cc/tabs/k/kent/p_nra_hll_tab.html ]
Eb|--0-----0------|--0-----0------|---------------|---------------|
Bb|------0---0----|------0---0----|--3-------3----|--0-------0----|
Gb|----5-------5--|----5-------5--|----0---0---0--|----0---0---0--|
Db|---------------|---------------|------4--------|------4--------|
Ab|--3------------|--3------------|--5------------|---------------|
Eb|---------------|---------------|---------------|--0------------|


Eb|--0-----0------|--0-----0------|---------------|---------------|
Bb|------0---0----|------0---0----|--3-------3----|--0-------0----|
Gb|----5-------5--|----5-------5--|----0---0---0--|----0---0---0--|
Db|---------------|---------------|------4--------|------4--------|
Ab|--3------------|--3------------|--5------------|---------------|
Eb|---------------|---------------|---------------|--3------------|


Eb|--0-----0------|--0-----0------|---------------|---------------|
Bb|------0---0----|------0---0----|--3-------3----|--0-------0----|
Gb|----5-------5--|----5-------5--|----0---0---0--|----0---0---0--|
Db|---------------|---------------|------4--------|------4--------|
Ab|--3------------|--3------------|--5------------|---------------|
Eb|---------------|---------------|---------------|--0------------|


Eb|---------------|---------------|---------------|---------------|
Bb|--1-------1----|--1-------1----|--1-------1----|--1-------1----|
Gb|----0---0---0--|----0---0---0--|----2---2---2--|----2---2---2--|
Db|------2--------|------2--------|------0--------|------0--------|
Ab|--3------------|--0------------|---------------|---------------|
Eb|---------------|---------------|--2------------|--2------------|


Eb|---------------|---------------|---------------|---------------|
Bb|--1-------1----|--1-------1----|--0-------0----|--0-------0----|
Gb|----0---0---0--|----0---0---0--|----0---0---0--|----0---0---0--|
Db|------2--------|------2--------|------4--------|------4--------|
Ab|--3------------|--3------------|--2------------|--2------------|
Eb|---------------|---------------|---------------|---------------|


Eb|---------------|---------------|---------------|---------------|
Bb|--1-------1----|--1-------1----|--1-------1----|--1-------1----|
Gb|----2---2---2--|----2---2---2--|----2---2---2--|----2---2---2--|
Db|------2--------|------2--------|------0--------|------0--------|
Ab|--0------------|--0------------|---------------|---------------|
Eb|---------------|---------------|--2------------|--2------------|


Eb|---------------|---------------|
Bb|--1-------0----|--1------------|
Gb|----2---2---2--|----2---2/7----|
Db|------0--------|------0--------|Spela från versen och hit igen.
Ab|---------------|------------9--|När du är här andra gången hoppar du över dessa
Eb|--2------------|--2------------|två takter och spelar dom fyra sista i stället.


Eb|---------------|---------------|---------------|---------------|
Bb|--1-------0----|--1-------3----|--0------------|---------------|
Gb|----2---2---2--|----2---2---2--|----0---0------|---------------|
Db|------0--------|------0--------|------4-----4--|---------------|
Ab|---------------|---------------|----------2----|---------------|
Eb|--2------------|--2------------|--3------------|--2------------|
Comments